Song name
# A B C D E F G H I J K L M N O P Q R S T U V W X Y Z

Keaton Simons - Currently tab

A friend and I were sick of not finding any Keaton Simons tabs so we decided to tab out
this song. We tabbed out the chords and the solo. It sounds correct except for maybe the
very end of the solo. If you have any comments email us.
 You can find lyrics at
http://www.purevolume.com/keatonsimons/lyrics/562138


Currently
By Keaton Simons


Chords:

        EADGBe
Eb:     x68x8x
Dm7b5:  x5656x
Cm7:    x35343
Bbm11:  646544
A7b5:   545644
Ab7:    464544
Adim7:  564544
Bb7:    686766
Bb7#5:  696766



Solo:

|------------------------------------|------6--8----------------------|
|----------------6---------6/8-------|-6/8---------6/8--6-------------|
|-6/8----6/8----------8--------------|---------------------8----------|
|------------------------------------|--------------------------------|
|------------------------------------|--------------------------------|
|------------------------------------|--------------------------------|


|--------------------------------------------|---5------------------------------------|
|--------------------------------------------|-7---7---------------6--8h9--8--6---7---|
|---8--5---6--8--6----6--8---5-------8--5-8--|-------8-5--------7---------------8-----|
|-------------------8------8-----------------|-----------9-7-8------------------------|
|--------------------------------------------|----------------------------------------|
|--------------------------------------------|----------------------------------------|


|--------------------------------------------|------------------------------------------------|
|-7-5----------------------------7h8--11--8--|------------------------------------------------|
|-----8-7-5---8-7-5--------------------------|-----------------------4h5----8--5h6---------6--|
|-----------8-------8------8h10--------------|--------5--8--5----8-5-----------------6-5------|
|--------------------------------------------|--5--8------------------------------------------|
|--------------------------------------------|------------------------------------------------|


|--------------------------------------------|
|---------------------------------1-3----1-3-|
|--5-5-5-5-5-5-7-7-7-7------3-----1-3----1-3-|
|------------------------3/5------3/5----3/5-|
|------------------------3/5----1-1/3--1-1/3-|
|--------------------------------------------|

Corrections, Comments?
send to markosmeyer@gmail.com

http://www.keatonsimons.com/
Tap to rate this tab
 
# A B C D E F G H I J K L M N O P Q R S T U V W X Y Z