Song name
# A B C D E F G H I J K L M N O P Q R S T U V W X Y Z

Keb Mo - Suitcase tab

Keb Mo'- Suitcase

Tabbed By: Mbbosox

Intro

e|----6/7---10-----------7/6---3-----------6/7---10-----------6/7---10------
B|-----------8-----------------1------------------8------------------8------
G|--------------------------------------------------------------------------
D|--------------------------------------------------------------------------
A|--------------------------------------------------------------------------
E|--------------------------------------------------------------------------

e|----7/6----3----------7/6----3-----------6/7----10----------6/7----10-----
B|-----------1-----------------1-------------------8------------------8----|
G|--------------------------------------------------------------------------
D|--------------------------------------------------------------------------
A|--------------------------------------------------------------------------
E|--------------------------------------------------------------------------


e|----7/6----3----------7/6----3-----------6/7----10----------6/7----10-----
B|-----------1-----------------1-------------------8------------------8-----
G|--------------------------------------------------------------------------
D|--------------------------------------------------------------------------
A|--------------------------------------------------------------------------
E|--------------------------------------------------------------------------





  Most of the song uses these main two riffs other solos and riffs are included as well 
I will tab those soon.

 email me with questions, corrections, or advice at mbbosox@comcast.net
Tap to rate this tab
# A B C D E F G H I J K L M N O P Q R S T U V W X Y Z