Guitaretab - guitar tabs
Song name
# A B C D E F G H I J K L M N O P Q R S T U V W X Y Z

Keb Mo - Just Like You tab

Keb Mo- Just like you           standard tuning
transcribed by: Stu
                                                                            
Intro:
:--------------------------------------------------:
:--0--1--3---5---8---7---5---3--------1h3----------:
:-------------------------------0------------------:
:---------------------------------0----------------:
:--------------------------------------------------:
:--3--3--3---5---8---7---5---3---------------------:

:--------------------------------------:
:--0--1--3---5---8---7---5---3----1h3--:
:---------------------------------0----: 
:---------------------------------0----:
:--------------------------------------:
:--3--3--3---5---8---7---5---3---------:
[ Tab from: http://www.guitaretab.com/k/keb-mo/152082.html ]
Hello my friend its benn awhile
all our all old clothes are back in style 

 F           C 
We went our seperate ways

 F       C
Only to return

 F         G
To face a lesson

 F            C
We failed to learn

We didnt understand the truth
We were blinded by the eyes of you

 F               C
And time kept on movin

 F               C
And a change has come

 F            G
And you think I dont know 
  
 F               C
Where your comin from
Chorus:
       F    C                   G
Well I feel just like you and i cry just like you

       F    C               F            G 
Well I heel just like you, under my skin im just like you.



Thats how the verse and chorus goes...this a great song...later Stu 
Related for Just Like You tab