Keel - Somebodys Waiting tab

----------------------------------------------------------------------------
KEEL - Somebody's Waiting
----------------------------------------------------------------------------

Tabbed by:Aaron Wyatt
Email:enix165@hotmail.com or awyatt165@gmail.com


Riff A(intro/post-chorus, verse riff is the same only not power chords)


e|-----------------------------------| x4
B|-----------------------------------|
G|---------------------------6/8-----|
D|----6------9\6------4/6----6/8-----|
A|----6------9\6------4/6----4/6-----|
E|----4------7\4------2/4------------|

Riff B(pre-chorus)

e|-----------------------------------------------------------------|
B|-----------------------------------------------------------------|
G|-----------------------------------------------------------------|
D|----3-3-3--3-3-3--3-3-3--3-3-3--5-5-5--5-5-5--5-5-5-5-5-5-5-5----|
A|----3-3-3--3-3-3--3-3-3--3-3-3--5-5-5--5-5-5--5-5-5-5-5-5-5-5----|
E|----1-1-1--1-1-1--1-1-1--1-1-1--3-3-3--3-3-3--3-3-3-3-3-3-3-3----|

Riff C(chorus)


e|-----------------------------------| x4
B|-----------------------------------|
G|-----------------------------------|
D|----6---6---9-8-6-2---2---9---8----|
A|----6---6---9-8-6-2---2---9---8----|
E|----4---4---7-6-4-0---0---7---6----|
Tap to rate this tab
 
# A B C D E F G H I J K L M N O P Q R S T U V W X Y Z