Song name
# A B C D E F G H I J K L M N O P Q R S T U V W X Y Z

Keelhaul - Hmg tab

-------------------------------------------------------------------------------
			     hmg - Keelhaul
-------------------------------------------------------------------------------
	                  
                            www.keelhaul.info

Tabbed by: snowmotion
Email: paulpryan@hotmail.com

Tuning: Drop D (low to high DADGBe)

Riff 1

e|---------------------------------------------|
B|---------------------------------------------|
G|-------2p0-------------------2p0-------0-----|
D|---2h3-----3---0---0-----2h3-----3-------2h3-|
A|-----------------0-------------------0-------|
D|-0-----------5---------0-----------5---------|

Riff 2

e|---------------------------------------------------------------------------|
B|---------------------------------------------------------------------------|
G|---------------------------0-------------0-------0-----------6-----6-------|
D|-----0-----0-------0-----0-----0-------------------------------------------|
A|---8-----8-----8-----5----------------10------10------10---7-----7---5-7---|
D|-8-----8-----8---5-----5-----5---5/10------10------10----7-----7-----------|

e|-------------------------------------------------------------------------|
B|-------------------------------------------------------------------------|
G|-----7-----7---------0-----0-----------0-------0-----------6-----6-------|
D|-------------------------------------------------------------------------|
A|---8-----8-----8---5-----5---5------10------10------10---7-----7---7-----|
D|-8-----8-----8---5-----5-------5-10------10------10----7-----7-------8---|

Riff 3

e|---------------------------------------------------------------------------------------|
B|---------------------------------------------------------------------------------------|
G|-----7-----7-5-----2-----2-0--7----7-----7-5-----2-----2-0-----7-----7-5-----2-----2-0-|
D|---------------------------------------------------------------------------------------|
A|---8-----8-------3-----3---------8-----8-------3-----3-------8-----8-------3-----3-----|
D|-8-----8-------3-----3-------(8)-----8-------3-----3-------8-----8-------3-----3-------|

e|---------------------------------------------|
B|---------------------------------------------|
G|-----7-----7-5-4---4-----4----4-----4-----4/-|
D|---------------------------------------------|
A|---8-----8-------------5----------5-----5----|
D|-8-----8---------5---5------5---5-----5---5/-|

STRUCTURE


Riff 1 x4

Riff 2 x1

Riff 1 x4

Riff 2 x1

Riff 3 x1

Riff 1 x4


************************************

| /   slide up
| \   slide down
| h   hammer-on
| p   pull-off
| ~   vibrato
| +   harmonic
| x   Mute note
| b   Bend
| pb  Pre-bend
| br  Bend release
| pbr Pre-bend release
| brb Bend release bend

************************************
Tap to rate this tab
 
# A B C D E F G H I J K L M N O P Q R S T U V W X Y Z