Song name
# A B C D E F G H I J K L M N O P Q R S T U V W X Y Z

Keepsake - Lonliness tab

I made up this song by ear yes, and it is played with two guitars, you can tell that by
to the song.  But this is what I get from the song and it sounds pretty good. I might be
on a note here and there cuz I tend to change it everytime that I play it, but you'll 
the hang of it and do the same thing that I do.


~Standard Tuning~
4 basic chords are used, C Em Am and F


The intro goes like this


   C major
e|----------------------------------------------------------------|
B|---------------1-----------3------------1-----------1-----------|
G|------0---------------------------------------------------------|
D|---2-----2--------2------------2------------2-----------2-------|
A|-3----------3---------3-----------3-------------3---------------|
E|----------------------------------------------------------------|


E minor
e|------------------------------------------------------------------|
B|----------------1--------2--1-----1-------------------------------|
G|-------0----------------------------------------------------------|
D|----2-----2---------2------------------------2--------------------|
A|--2---------2---------2------------------2------2-----------------|
E|------------------ -----------------------------------------------|


A minor

e|----------------------------------------3---------0-------------------|
B|----------------------1-----------------------------------------------|
G|---------2--------------------------------------------------2---------|
D|-----2--------2--------------2--------------2-------------------------|
A|--0--------------0----------------0-------------0------0---------0----|
E|----------------------------------------------------------------------|


F major

e|--------------------------1------------3--------------------------------|
B|-------------1--------------------------------------1-------------------|
G|--------2--------2-----------2-------------2-------------2--------2-----|
D|---3-----------------3------------3------------3-------------3-------3--|
A|------------------------------------------------------------------------|
E|------------------------------------------------------------------------|


And then thats the style for the rest of the song, those are the 4 chords used in part
the song as well but it's hard to really hear it becuase the guitar is muted.
Tap to rate this tab
 
# A B C D E F G H I J K L M N O P Q R S T U V W X Y Z