Song name
# A B C D E F G H I J K L M N O P Q R S T U V W X Y Z

Keiichi Suzuki - Pollyanna tab

e|----7--10--9--10--10--10-------------------7--10--9--10--10------------|
B|-8------------------------10--12--------8------------------------------|
G|-----------------------------------------------------------------------|
D|-----------------------------------------------------------------------| x2
A|-----------------------------------------------------------------------|
E|-----------------------------------------------------------------------|

e|-----------------0------------------------------2----------------------|
B|--------------------2--3---------2--------3--3-------3-----------------|
G|-----------2--2---------------------4--4----------------2--------------|
D|-xxx-4--4--------------------------------------------------------5--5--|
A|-----------------------------------------------------------------------|
E|-----------------------------------------------------------------------|

e|-----------------0------------------------------2----------------------|
B|--------------------2--3---------2--------3--3-------3-----------------|
G|-----------2--2---------------------4--4----------------2--------------|
D|-----4--4--------------------------------------------------------5--5--|
A|-----------------------------------------------------------------------|
E|-----------------------------------------------------------------------|

e|--------------------------------7--------------------------------------|
B|----------------------------7------------0--3--2--0--2--3--2--0--2--3--|
G|-------------------------7---------------------------------------------|
D|-0--4--2--0--2--4-----9------------------------------------------------|
A|-----------------------------------------------------------------------|
E|-----------------------------------------------------------------------|

e|-----------------------------------------------0-----------------------|
B|--------------------------------------------------3--2--3--------------|
G|-----2---2---2----------------------2--2--2----------------------------|
D|----------------4--2--0------------------------------------------------|
A|-----------------------------------------------------------------------|
E|-----------------------------------------------------------------------|

e|-----------------------------------------------------------------------|
B|--0--2--3--2--0--2--3--2--0--2--3--2--0--2--3--------------------------|
G|-------------------------------------------------2--2------------------|
D|-----------------------------------------------------------------------|
A|-----------------------------------------------------------------------|
E|-----------------------------------------------------------------------|

e|-------------------------------------2---------------------------------|
B|-3--2--0--2--3--2--0--2--3--3--3--3-----3--2--3------------------------|
G|-----------------------------------------------------------------------|
D|-----------------------------------------------------------------------|
A|-----------------------------------------------------------------------|
E|-----------------------------------------------------------------------|
Tap to rate this tab
 
# A B C D E F G H I J K L M N O P Q R S T U V W X Y Z