Song name
# A B C D E F G H I J K L M N O P Q R S T U V W X Y Z

Keith And Kristyn Getty - Christ Is Risen He Is Risen Indeed tab

Christ Is Risen, He Is Risen Indeed- Keith And Kristyn Getty
This is the live version on Youtube:
http://www.youtube.com/watch?v=uRnG2xzzEaU

Intro Electric Guitar
|-----------------------------------------------------------------------------|
|----------------------------------------------------------------10-9---------|
|---------9-11-9-----11-9-----------------------------9-11-9----------11-9----|
|----9-11--------11-------11-9----9-11-9---------9-11---------11-----------11-|
|-12---------------------------12--------12---12------------------------------|
|-----------------------------------------------------------------------------|

|----------------------------------------------------------------------------|
|----------------------------------------------------------------------------|
|----------------------------------------------------------------------------|
|----9-11-9------------------------------------------------------------------|
|-12--------12---------------------------------------------------------------|
|----------------------------------------------------------------------------|

Chords
A                  D       A
How can it be, the One who died,
D             A           E
Has borne our sin through sacrifice
D          A     E        F#m
To conquer every sting of death?
Bm    A    E      A
Sing, sing hallelujah.

A                  D       A
For joy awakes as dawning light
D             A           E
When Christís disciples lift their eyes.
D          A     E        F#m
Alive He stands, their Friend and King;
Bm    A    E      A
Christ, Christ He is risen.

CHORUS
E                      A     E
Christ is risen, He is risen indeed!
D             A
Oh, sing hallelujah.
E                F#m           D
Join the chorus, sing with the redeemed;
Bm        A            E        A
Christ is risen, He is risen indeed.


A                  D       A
Where doubt and darkness once had been,
D             A           E
They saw Him and their hearts believed
D          A     E        F#m .
But blessed are those who have not seen,
Bm    A    E      A
Yet, sing hallelujah.

A                  D       A
Once bound by fear now bold in faith,
D             A           E
They preached the truth and power of grace.
D          A     E        F#m
And pouring out their lives they gained
Bm    A    E      A
Life, life everlasting.

CHORUS

A                  D       A
The power that raised Him from the grave
D             A           E
Now works in us to powerfully save.
D          A     E        F#m
He frees our hearts to live His grace;
Bm    A    E      A
Go tell of His goodness.

CHORUS

A                D
Heís alive, Heís alive!
A                  D
Heavenís gates are opened wide.
A           D
Heís alive, Heís alive!
A             D
Now in heaven glorified.

Just in case you were wondering,
This is the tab for the little lick the guitarist does at sometimes.

|----------------------------------------------------------------------------|
|----------------------------------------------------------------------------|
|----------9-----------------------------------------------------------------|
|-----9-11---11-9------------------------------------------------------------|
|--12-------------12---------------------------------------------------------|
|----------------------------------------------------------------------------|

This is my first Tab. Hope you like it and any suggestions on improvements are very much welcome.

Thanks,

James
Tap to rate this tab
# A B C D E F G H I J K L M N O P Q R S T U V W X Y Z