Song name
# A B C D E F G H I J K L M N O P Q R S T U V W X Y Z

Keith Apicary - Power Glove tab

power glove


keith apicary


TRANSCRIBED BY RUDY GUZMAN


guzman_84@hotmail.com




teenage mutant ninja turtles episode
*keith goes for his power glove

www.youtube.com/watch?v=OTypjbfvFXo

                                               
e:----3p0--------0--3p0----5-7------3p0---------0--3p0-----7-6-|
B:--------5p0----------------------------5p0-------------------|
G:-------------------------------------------------------------|
D:-------------------------------------------------------------|
A:-------------------------------------------------------------|
E:-0----------0---------0--------0-----------0----------0------|


e:----3p0--------0--3p0----5-4------3p0---------0--3p0---------15-|
B:--------5p0----------------------------5p0----------------15----|
G:----------------------------------------------------------------|
D:----------------------------------------------------------------|
A:----------------------------------------------------------------|
E:-0----------0---------0--------0-----------0----------0---------|

e:----3p0--------0--3p0----5-7------3p0---------0--3p0-----7-6-|
B:--------5p0----------------------------5p0-------------------|
G:-------------------------------------------------------------|
D:-------------------------------------------------------------|
A:-------------------------------------------------------------|
E:-0----------0---------0--------0-----------0----------0------|


e:----3p0--------0--3p0----5-4------3p0---------0--3p0---------15-|
B:--------5p0----------------------------5p0----------------15----|
G:----------------------------------------------------------------|
D:----------------------------------------------------------------|
A:----------------------------------------------------------------|
E:-0----------0---------0--------0-----------0----------0---------|

e:----3p0--------0--3p0----5-7------3p0---------0--3p0-----7-6-|
B:--------5p0----------------------------5p0-------------------|
G:-------------------------------------------------------------|
D:-------------------------------------------------------------|
A:-------------------------------------------------------------|
E:-0----------0---------0--------0-----------0----------0------|


e:----3p0--------0--3p0----5-4------3p0---------0--3p0---------15-|
B:--------5p0----------------------------5p0----------------15----|
G:----------------------------------------------------------------|
D:----------------------------------------------------------------|
A:----------------------------------------------------------------|
E:-0----------0---------0--------0-----------0----------0---------|



hillo son mex

25/08/11
Tap to rate this tab
# A B C D E F G H I J K L M N O P Q R S T U V W X Y Z