Keith Merrow - Seymour Duncan 7 String Youtube Solo tab

-------------------------------------------------------------------------------
                             SONG NAME - Band Name
-------------------------------------------------------------------------------
Tabbed by: Crocomike
E-mail: crocomike@yahoo.com

Tuning: Drop C I believe, I could be wrong, watch the video and tune accordingly!

Stave 1:
E|----------------------------------------14------------12---------------------|
B|-------------------12--13--15--------------10--12--13--------------7--8--9---|
G|--------11--12--14------------9--11--12--------------------6--8--9---------8b|
D|12/14\9--------------------------------------------------9-------------------|
A|-----------------------------------------------------------------------------|
E|-----------------------------------------------------------------------------|

Stave 2:
E|--------------------------------9/11\9---------------------------------7-----|
B|-------------------7------7--10--------10--7------7------------------8-------|
G|----------8------8---6--8--------------------8--6---8--6-----------9---------|
D|-----7--9---7--9-----------------------------------------7-------9-----------|
A|6--9-------------------------------------------------------7--10-------------|
E|-----------------------------------------------------------------------------|

Stave 3:
E|-----------------------------------------------------------------------------|
B|11b--13--11b----12--11b----20--19--19b----17----16b--16----------------------|
G|-------------12---------11-------------16----14------------------------------|
D|-----------------------------------------------------------------------------|
A|-----------------------------------------------------------------------------|
E|-----------------------------------------------------------------------------|

Stave 4:
E|-----------------------17--19b--19b--18-------------|
B|--------16--17--19--20------------------------------|
G|-16--17---------------------------------------------|
D|----------------------------------------------------|
A|----------------------------------------------------|
E|----------------------------------------------------|



************************************

| /   slide up
| \   slide down
| h   hammer-on
| p   pull-off
| ~   vibrato
| +   harmonic
| x   Mute note
| b   Bend
| pb  Pre-bend
| br  Bend release
| pbr Pre-bend release
| brb Bend release bend

************************************
Tap to rate this tab
 
# A B C D E F G H I J K L M N O P Q R S T U V W X Y Z