Song name
# A B C D E F G H I J K L M N O P Q R S T U V W X Y Z

Keith Richards - Demon tab

Help us improve GuitareTab! Take a short survey!
band- trivium
song-demon
album-demo cd...      tabbed by dupsidolittle

e|--------------|
B|--------------|
G|--------------|
D|2--11-10-9----| repeat a couple times then
A|2--9--8--7----|
E|0-------------|

e|------------------------------------------------|
B|------------------------------------------------|
G|----------------------------------------  play--| 2x
D|2-----------------2----------4-5-8-7-5-4--------|
A|2-/7-6------------2-/7-6-----4-5-8-7-5-4--------|
E|0------6-7-2-3-6--0------6-7-2-3-6-5-3-2--------|

e|--------------------------------------------|
B|--------------------------------------------|
G|--------------------------------------------|
D|--------------------------------------------|
A|--/7-6--------------/7-6--------------------|
E|0------6-7-2-3-6--0------6-7--2-3-6-5-3-2-0-|

e|--------------------------------|
B|--------------------------------|
G|----9/8-------------------------|
D|----9/8-----8/9-----4/5-5/4-4/5-|
A|----7/6-----8/9-----4/5-5/4-4/5-|
E|000-----000-6/7-000-2/3-3/2-2/3-|

e|-----------------------|
B|-----------------------|
G|----9/8----------------|
D|----9/8-----8/9--45-43-|
A|----7/6-----8/9--45-43-|
E|000-----000-6/7--23-21-|

n thats all i got so far....the rest is commin
Related for Demon tab