Keith Richards - Its Funny tab

---------------------------------------------------------------------------
			     It's Funny - Keith Richards
-----------------------------------------------------------------------------
Tabbed by:123498765
Email:lymperopov@sch.gr

Tuning:Half Step Down

e|-----6-----------------6-----------6-------------------------|
B|-------7----------------7-----------7------------------------|
G|---------8---------------8-----------8-----------------------|
D|-----------9--6s8v--------9-6s8v------9-6s8v-----------------|
A|-------------------------------------------------------------|
E|-0-----------------------------------------------------------|


Chords For The Song

e|--6----6------------------------------------------------------|
b|--7----6------------------------------------------------------|
g|--8----6------------------------------------------------------|
d|--9----6------------------------------------------------------|
a|--------------------------------------------------------------|
E|--------------------------------------------------------------|


************************************

| /   slide up
| \   slide down
| h   hammer-on
| p   pull-off
| ~   vibrato
| +   harmonic
| x   Mute note
| b   Bend
| pb  Pre-bend
| br  Bend release
| pbr Pre-bend release
| brb Bend release bend

************************************

Sorry For Couldn't Find The Whole Song!
Tap to rate this tab
 
# A B C D E F G H I J K L M N O P Q R S T U V W X Y Z