Song name
# A B C D E F G H I J K L M N O P Q R S T U V W X Y Z

Keith Richards - How I Wish tab

(/) Slide Up  (\) Slide Down  (h) Hammer On  (p) Pull Off  (b) Bend (r) Release
(v) Vibrato Hope you enjoy it since it's one of keith's best solos.


D|----------------------------------------------|
B|----------------------------------------------|
G|-----5-5---------5-5------7b9r7-5-5-----------|
D|---7------0h2h5-------5/7---------------------|
G|----------------------------------------------|
E|----------------------------------------------|

D|-10--------------------------------------------|
B|-10-10-8---8b10---------5b6r5b6r5--------------|
G|---------9------9--5-5------------5-5-----7b9--|
D|---------------------------------------7-------|
G|-----------------------------------------------|
E|-----------------------------------------------|

D|------------------------------------------------------|
B|-8------10-----12-----13----13--13----13--13----13----|
G|-10b12--12b14--14b16--15b17-----15b17-15b-15b17-15b17-|
D|------------------------------------------------------|
G|------------------------------------------------------|
E|------------------------------------------------------|

D|-----------------17b19-17-17b19-17b18v----------------|
B|-15b17r15--13-13-----------------------15b-15-13------|
G|------------------------------------------------------|
D|------------------------------------------------------|
G|------------------------------------------------------|
E|------------------------------------------------------|

D|---------------------------------17b19r17b19r17b19r17-|
B|-15b-15-13--15b-15-13--15b-15-13----------------------|
G|------------------------------------------------------|
D|------------------------------------------------------|
G|------------------------------------------------------|
E|------------------------------------------------------|

D|-15-15-15-14-14-14------------------------------------|
B|-13-13-15-12-12-12------------------------------------|
G|------------------------------------------------------|
D|------------------------------------------------------|
G|------------------------------------------------------|
E|------------------------------------------------------|
Tap to rate this tab
# A B C D E F G H I J K L M N O P Q R S T U V W X Y Z