Song name
# A B C D E F G H I J K L M N O P Q R S T U V W X Y Z

Keith Urban - Youll Remember Me Live tab

Taken from the AOL Session Video, this is the bit he plays before he goes into the 
song.
This is my first tab, but I'm confident that it's much more accurate than the others 
seen. Let me know what ya think, and please give credit if copied somewhere else!

Tabbed by Jamie Pressley

Standard Tuning with Capo at 2nd Fret.
/ = Slide Up
\ = Slide Down
H = Hammer On
P = Pull Off

-------------0--------------|--------------0-------------------|
-------3-------3---------3--|--------3-------3--------3--------|
-----0---0-------0------0---|------0---0-------0----0----------|
---4-------4-------4---4----|----2-------2--------2------------|
-2-------------------2------|--3-------------------------------|
----------------------------|----------------------------------|
                             (*)
-------------0----0---------|-----0-----0-----0------0---------|
-------3-------3----3-------|-5/7---7/9---9/10--10/12--12/15\5-|
-----0---0-------0----0-----|----------------------------------|
---4-------4----------------|----------------------------------|
-2--------------------------|----------------------------------|
----------------------------|----------------------------------|

-------------0----0---------|----------------------------------|
-------3-------3----3-------|----0-----------------------------|
-----0---0-------0---0------|------2-0----0----0---------------|
---4-------4----------4-----|----------2H4--2H4--4P2P0---------|
-2--------------------------|--3-----------------------3-------|
----------------------------|----------------------------0-----|

-------------0--------------|--------0-------------------------|
-------3-------3-------3----|--------0-------------------------|
-----0---0-------0---0------|--------0-------------------------|
---4-------4-------4--------|--------2-------------------------|
-2--------------------------|--------3-------------------------|
----------------------------|----------------------------------|
Tap to rate this tab
# A B C D E F G H I J K L M N O P Q R S T U V W X Y Z