Song name
# A B C D E F G H I J K L M N O P Q R S T U V W X Y Z

Keith Urban - You Look Good In My Shirt tab

-----------------------------------------------------------------------------
	        You Look Good In My Shirt - Keith Urban
-----------------------------------------------------------------------------
Tabbed by:Brandon G
Email:terre.gable334@wku.edu

Tuning:Standard EADGBe
I've never really listened to the CD version of this song but a few times but most of
is taken of his Livin' Right Now DVD that I have.
::UPDATE::04/08/08:: I've update the rest of the solo and fixed things I seen wrong in the intro.

  Intro
e|--------------------------------------|
B|------------3-3--3--3-3--3--3-3-3/----|
G|--------0---0-2b-2r-0-2b-2b-2-0-2/----|
D|--------0h2---------------------------|
A|-12-----------------------------------|
E|-12-12\-------------------------------|
                                     *This parts on the CD but not the DVD
e|--------------------------------------------*3/5-5*-|
B|-----3-3--3--3-3--3--3-----------0-3--3-3----3/5-5--|
G|-0---0-2b-2r-0-2b-2b-2rp0----0---0-2b-0-2-----------|
D|-0h2-------------------------0h2--------------------|
A|----------------------------------------------------|
E|----------------------------------------------------|

e|----------------------------------------------|
B|-----3-3--3--3-3--3--3-----------0-3--3-3~~---|
G|-0---0-2b-2r-0-2b-2b-2rp0----0---0-2b-0-0~~---|
D|-0h2-------------------------0h2--------------|
A|----------------------------------------------|
E|----------------------------------------------|
  Solo
e|-------------------------------------------------------------------7------|
B|-----3-3--3-3-3-3--3-3-----3-3-5------------------------8---10bh-10-10r-8-|
G|-0---0-2bh2-2-2-2r-0-2bp0--4-4---4/2p0---0-2bp0---0-0/9---9---------------|
D|-0h2-----------------------------------2--------2-------------------------|
A|--------------------------------------------------------------------------|
E|--------------------------------------------------------------------------|

e|----------------------------------------------------------------------------------|
B|-----7b---------------------------------------------------------------------------|
G|-9-7----9-7--9p7---7/--12p0-11p0-9p0-7p0-5p0-4p0-2p0-2bp0---2p0-----0-------------|
D|-----------------9----------------------------------------0-----2p0---------------|
A|------------------------------------------------------------------------5-5/7b----|
E|----------------------------------------------------------------------3-----------|
This solo is probably not 100% correct but if you listen to the song and get the timing 
it's really really close. Enjoy!

/  slide up
\  slide down
b  bend note and come back
bh bend and hold that note until you see the r
r  return to starting note
bp bend retrn then pull-off
h  hammer-on
p  pull-off
~  vibrato
+  harmonic
x  Mute note
=============================================================================
Tap to rate this tab
 
# A B C D E F G H I J K L M N O P Q R S T U V W X Y Z