Song name
# A B C D E F G H I J K L M N O P Q R S T U V W X Y Z

Keith Urban - You Won tab

-----------------------------------------------------------------------------
			   You Won - Keith Urban
-----------------------------------------------------------------------------
Tabbed by: Brandon Gable
Email: terre.gable334@wku.edu
Tuning: Standard EADGBe

This is the LIVE intro (so far) for the song You Won of the DVD Livin' Right
 Now. A lot of delay or "echo" is required for this..

This may not be 100% correct but it is really close. I'll keep piddling around
 to see if I can fine tune it and I'll get the solo and some of the other fills
 for you later on!
UPDATE::04/01/08:: Updated some mess ups I didn't catch when submitted.

e|--------------------------------------------------------------------|
B|--------------------------------------------------------------------|
G|--------5p0---4p0---5---4p0-------------5p0---4p0---5---4p0---------|
D|--2/3-3-----3-----3---3-----3-----2/3-3-----3-----3---3-----3-------|
A|--------------------------------------------------------------------|
E|--------------------------------------------------------------------|
                        *Hold this 4 for about half a sec. Listen to DVD*
e|--------------------------------------------------------------------|
B|--------------------------------------------------------------------|
G|--------4p0---7p0---6---4p0------------*4*---7p0---6---4p0----------|
D|--3/5-5-----5-----5---5-----5-----3/5-5----5-----5---5-----5--------|
A|--------------------------------------------------------------------|
E|--------------------------------------------------------------------|

e|--------------------------------------------------------------------|
B|--------------------------------------------------------------------|
G|--------5p0---4p0---5---4p0-------------5p0---4p0---5---4p0---------|
D|--2/3-3-----3-----3---3-----3-----2/3-3-----3-----3---3-----3-------|
A|--------------------------------------------------------------------|
E|--------------------------------------------------------------------|

e|--------------------------------------------------------------------|
B|--------------------------------------------------------------------|
G|--4p0-0--5p0-0--7p0-0--9p0-0--12p0-0--14^~--------------------------|
D|--------------------------------------------------------------------|
A|--------------------------------------------------------------------|
E|--------------------------------------------------------------------|

*  see not above
/  slide up
\  slide down
h  hammer-on
p  pull-off
~  vibrato
^  bend string
=============================================================================
Tap to rate this tab
# A B C D E F G H I J K L M N O P Q R S T U V W X Y Z