Song name
# A B C D E F G H I J K L M N O P Q R S T U V W X Y Z

Keith Urban - These Are The Days tab

--------------------------------------------------------------------
                  THESE ARE THE DAYS - Keith Urban
--------------------------------------------------------------------
Tabbed by: Al O'Neil
Email: oneil_al@hotmail.com

Tuning: eBGDAE

e|-------0-2po0-------------3-----------|      [Intro]
B|-----3--------2-----------3-----------|      [3 Times]
G|---2------------3-------2-------------|
D|-0--------------------0---------------|
A|--------------------------------------|
E|------------------0h3-----------------|

e|-------0-2po0-------------5-----------|      [Intro]
B|-----3--------2-----------3-----------|      [1 Time]
G|---2------------3-------2-------------|
D|-0--------------------0---------------|
A|--------------------------------------|
E|------------------0h3-----------------|

e|-------0-----------------3------------|      [Verse]
B|-----3---3-------------3---3----------|      [8 Times]
G|---2-------2---------2-------2--------|
D|-0-----------0-----0-----------0------|
A|--------------------------------------|
E|---------------0h3--------------------|

e|-------0-----------------3------------|      [Chorus]
B|-----3---3-------------3---3----------|      [8 Times]
G|---2-------2---------2-------2--------|
D|-0-----------0-----0-----------0------|
A|--------------------------------------|
E|---------------0h3--------------------|

[Cool guitar peice played after "These are the times that won't come again"]
e|-14-15-15-17-17---| 
B|------------------|
G|------------------|
D|------------------|
A|------------------|
E|------------------|

-After you've got this all played, you just strum the chords until the end of the song.
-Any questions, email oneil_al@hotmail.com.






| /  slide up
| \  slide down
| h  hammer-on
| p  pull-off
| ~  vibrato
| +  harmonic
| x  Mute note
===========================================================================
Tap to rate this tab
# A B C D E F G H I J K L M N O P Q R S T U V W X Y Z