Song name
# A B C D E F G H I J K L M N O P Q R S T U V W X Y Z

Keith Urban - Hit The Ground Runnin tab

----------------------------------------------------------------------------
			     Hit the Ground Runnin - Keith Urban
----------------------------------------------------------------------------
Tabbed by:Grant Bogorad
Email:Grantbogorad@hotmail.com

Tuning:Standard
e|10/12~-12 12-12 12-12 12-12 12-12 12-12 12-12 12-12 12-12-12-12-12-12b-12|
B|-------------------------------------------------------------------------|
G|-------------------------------------------------------------------------|
D|-------------------------------------------------------------------------|
A|-------------------------------------------------------------------------|
E|-------------------------------------------------------------------------|

e|-----------------------------------------------10b-----------------------|
B|-------10-----12b---10----------------10-------------10------------------|
G|-9h12------9--------------------9h12------12-----------------------------|
D|-------------------------------------------------------------------------|
A|-------------------------------------------------------------------------|
E|-------------------------------------------------------------------------|

e|-13/15~----12--10--------------------------------------15~---------------|
B|-------------------13b--10------------11b---9----------------------------|
G|--------------------------------------------------12---------------------|
D|-------------------------------------------------------------------------|
A|-------------------------------------------------------------------------|
E|-------------------------------------------------------------------------|

e|------17------17-----17-----17-----17-----17-----17-----17-----17--------|
B|-17h20---17h20--17h20--17h20--17h20--17h20--17h20--17h20--17h20--17h20---|
G|-------------------------------------------------------------------------|
D|-------------------------------------------------------------------------|
A|-------------------------------------------------------------------------|
E|-------------------------------------------------------------------------|

E|-18/20---20-19-17-17~~\5----------------------------12b--10-10-----------|
B|-------------------------------------------------------------------------|
G|-------------------------------------------------------------------------|
D|-------------------------------------------------------------------------|
A|-------------------------------------------------------------------------|
E|-------------------------------------------------------------------------|

e|--10p8h10----------------------15h20--17-15------------------------------|
B|-------------------------15h17--------------17-15------------------------|
G|--------------------------------------------------17-14-14b--------------|
D|-------------------------------------------------------------------------|
A|-------------------------------------------------------------------------|
E|-------------------------------------------------------------------------|

| /  slide up
| \  slide down
| h  hammer-on
| p  pull-off
| ~  vibrato
| +  harmonic
| x  Mute note
============================================================================
Tap to rate this tab
# A B C D E F G H I J K L M N O P Q R S T U V W X Y Z