Song name
# A B C D E F G H I J K L M N O P Q R S T U V W X Y Z

Keith Urban - Sweet Thing chords

Highlighted       Show chord diagrams
Sweet Thing - Keith Urban

One 1/2 step down

Intro Tab
e--12-------7---7----------7---7----7---7----------7---7-----|
B--12--------------------------------------------------------|
G--------/9---9----8-9-8-9---9----9---9----8-9-8-9---9-------|
D------------------------------------------------------------|
A------------------------------------------------------------|
E------------------------------------------------------------|

e-----------7---7----------7---7----7---7----------7---7-----|
B------------------------------------------------------------|
G--------/9---9----8-9-8-9---9----9---9----8-9-8-9---9-------|
D------------------------------------------------------------|
A------------------------------------------------------------|
E------------------------------------------------------------|

e----9-7-7-7--9-7-7-7--9-7-7-7--9-7-7-7----------------------|
B------------------------------------------------------------|
G------------------------------------------------------------|
D------------------------------------------------------------|
A------------------------------------------------------------|
E------------------------------------------------------------|


Intro: E/A/F#m/A/E/A/F#m/A

E
When i picked you up for our first date baby

Well, your pretty blue eyes, they were drivin' me crazy
        A
And the tiny little thought that was so amazing
             F#m
Is they were lookin at me.

E
I held open the car door for you then you climbed

Inside and slid on over
       A                      F#m
To the other side.. i thought my, oh my..

E
Sweet thing

The moon is high and the night is young
            A
Come on and meet me

In the backyard under the cottonwood tree
       F#m                A
It's a good thing and i'm wishin
      E
C'mon sweet thing

Won't you climb on out of your window
                   A
While the world is sleepin

Cause you know i need you
                           F#m
And there's no way i'll be leavin
                         A
Til we're kissing on the porch swing
             E
Oh my little sweet thing

       E
Yeah i know i'm gonna see you first thing tomorrow

But i just couldn't wait so i had to borrow
      A
Uncle jake's mustang, its his favorite car
         F#m
And so i can't stay long..

E
Standin here feeling like a love struck romeo
                                     A
All i wanna do is hold you close and steal a little
                   F#m
More time, is that such a crime?


E
Sweet thing

The moon is high and the night is young
            A
Come on and meet me

In the backyard under the cottonwood tree
       F#m                A
It's a good thing and i'm wishin
      E
C'mon sweet thing

Won't you climb on out of your window
                   A
While the world is sleepin

Cause you know i need you
                           F#m
And there's no way i'll be leavin
                         A
Til we're kissing on the porch swing
             E
Oh my little sweet thing

Solo:A,Bm,A,Bm

Sweet thing, sweet thing..

      E
Oh my sweet thing

The moon is high and the night is young
            A
Come on and meet me

In the backyard under the cottonwood tree
       F#m                A
It's a good thing and i'm wishin
      E
C'mon sweet thing

Won't you climb on out of your window
                   A
While the world is sleepin

Cause you know i need you
                           F#m
And there's no way i'll be leavin
                         A
Til we're kissing on the porch swing
             E            A
Oh my little sweet thing
        E                                    A
Oh cmon sweet thing, sweet thing, sweet thing..

E/A/E/A/
Tap to rate this tab
# A B C D E F G H I J K L M N O P Q R S T U V W X Y Z