Song name
# A B C D E F G H I J K L M N O P Q R S T U V W X Y Z

Keith Urban - Til Summer Comes Around tab

This is my first tab. I'm new to Ultimate-guitar. Think this is right for the most part. 
or message for corrections. They will be appreciated! :)


e|---------------------------0-----------------------15/17-------|
B|---0h1p0--0h1--0h1p0--0h1----1--1/3--------12------------------|
G|---0h2p0--0h2--0h2p0--0h2-------2/4-----12----12---------------|
D|---------------------------------------------------------------|
A|---------------------------------------------------------------|
E|---------------------------------------------------------------|


e|---------------------------0-----------------------------------|
B|---0h1p0--0h1--0h1p0--0h1----1--1/3------12--10----------------|
G|---0h2p0--0h2--0h2p0--0h2-------2/4--------------12--9---------|
D|---------------------------------------------------------------|
A|---------------------------------------------------------------|
E|---------------------------------------------------------------|


e|---------------------------0-----------------------------------|
B|---0h1p0--0h1--0h1p0--0h1----1--1/3----------------------------|
G|---0h2p0--0h2--0h2p0--0h2-------2/4------0h1h2/5---------------|
D|---------------------------------------------------------------|
A|---------------------------------------------------------------|
E|---------------------------------------------------------------|

Okay thats the Intro, for the most part it sounds correct. I hope maybe it helps you 
:D
Tap to rate this tab
 
# A B C D E F G H I J K L M N O P Q R S T U V W X Y Z