Guitaretab - guitar tabs
Song name
# A B C D E F G H I J K L M N O P Q R S T U V W X Y Z

Keith Urban - Til Summer Comes Around tab

-------------------------------------------------------------------------------
'Til Summer Comes Around (intro) - Keith Urban
-------------------------------------------------------------------------------
Tabbed by: Thomas Seawright
Email: Tomcat088 (at) hot mail.com

Definitely not perfect, but it should be pretty close. It has some reverb, chorus 
and delay effects
that make it sound like some pull offs with the hammer on's, I think it's just the effects.
Hopefully some people like the riffs in this song and it'll help them out. Critiques, corrections,
"thank yous" are always welcome, just email them.

Tuning:Standard

e|------------------------------0--------------------------15/17\15----------|
B|---0h1----0h1----0h1----0h1--------1-1/3------15-15-15---15/17\15----------|
G|---0h2----0h2----0h2----0h2--------2-2/4------16-17-16---------------------|
D|---------------------------------------------------------------------------|
A|---------------------------------------------------------------------------|
E|---------------------------------------------------------------------------|
[ Tab from: http://www.guitaretab.com/k/keith-urban/219166.html ]
e|------------------------------0--------------------------------------------|
B|---0h1----0h1----0h1----0h1--------1-1/3-------+12+------------------------|
G|---0h2----0h2----0h2----0h2--------2-2/4--------------------+12+-----------|
D|-----------------------------------------------------+7+-------------------|
A|-------------------------------------------------------------------+7+-----|
E|---------------------------------------------------------------------------|

e|------------------------------0--------------------------------------------|
B|---0h1----0h1----0h1----0h1--------1-1/3-----------------------------------|
G|---0h2----0h2----0h2----0h2--------2-2/4-----------------------------------|
D|---------------------------------------------------------------------------|
A|--------------------------------------------------------------5///14~~-----|
E|---------------------------------------------------------------------------|


************************************

| /   slide up
| \   slide down
| h   hammer-on
| p   pull-off
| ~   vibrato
| +   harmonic
| x   Mute note
| b   Bend
| pb  Pre-bend
| br  Bend release
| pbr Pre-bend release
| brb Bend release bend

************************************
Related for Til Summer Comes Around tab
×
Best way to learn
"Til Summer Comes Around"