Song name
# A B C D E F G H I J K L M N O P Q R S T U V W X Y Z

Keith Urban - Til Summer Comes Around tab

Keith Urban- 'Til Summer Comes Around (Intro)

Tabbed by Jake Machado

This is what I feel this intro is

e|---------------------------0-----------------------15/17\15-----|
B|---0h1----0h1--0h1----0h1----1--1/3-----12h13r12---15/17\15-----|
G|---0h2----0h2--0h2----0h2-------2/4-----12----------------------|
D|---------------3------3-----------------12----------------------|
A|---0------0-----------------------------------------------------|
E|----------------------------------------------------------------|


e|---------------------------0------------------------------------|
B|---0h1----0h1--0h1----0h1----1--1/3------<12>-------------------|
G|---0h2----0h2--0h2----0h2-------2/4-------------------<12>------|
D|---------------3------3------------------------<7>--------------|
A|---0------0--------------------------------------------------<7>|
E|----------------------------------------------------------------|


e|---------------------------0------------------------------------|
B|---0h1----0h1--0h1----0h1----1--1/3-----------------5-----------|
G|---0h2----0h2--0h2----0h2-------2/4-----------------5-----------|
D|---------------3------3-----------------------------7-----------|
A|---0------0-------------------------------------/7--------------|
E|----------------------------------------------------------------|

<#> is natural harmonics

Tap to rate this tab
# A B C D E F G H I J K L M N O P Q R S T U V W X Y Z