Song name
# A B C D E F G H I J K L M N O P Q R S T U V W X Y Z

Keith Urban - Sweet Thing tab

"Sweet Thing" by Keith Urban                               Tab by Jake Foster

Chords:
   Eb  Ab  Bb 
e|-3---4---1--|
B|-4---4---3--|
G|-3---5---3--|
D|------------|
A|------------|
E|------------|

Keith plays all of the tabbed parts except the solo with a delay effect on.
I don't have a delay pedal, so this is how I play it.  This sounds similar,
but it's not exact.


Intro: (play through twice)
e|-------6--------------6---6----|     |---8p6-6---8p6-6------|
B|---3h4---4----3h4-3h4---4---4--|     |----------------------|
G|-3----------3------------------|(X4) |-8-------8------------|(X2)
D|-------------------------------|     |-----------------8-8--|
A|-------------------------------|     |----------------------|
E|-------------------------------|     |----------------------|


e|-------------------------------------|  |-------------------------------|
B|-------------------------------------|  |------------------------4---4--|
G|-8-8--8--8--8-7h8--8-8--8-8-8--8-7h8-|X3|8-8--8--8--8-7h8--8-8-3---3---3|
D|-------------------------------------|  |-------------------------------|
A|-------------------------------------|  |-------------------------------|
E|-------------------------------------|  |-------------------------------|


Eb
Sweet thing, the moon is high and the night is young,
          Ab
Come on and meet me, in the backyard under the cotton wood tree
        Bb
It's a good thing,
     Ab
Am I wishin',
           Eb
Oh come on sweet thing, won't you climb on out of your window
                  Ab
While the world's sleepin', you know I need you and there's
                Bb
No way I'll be leavin'
                         Ab
'Till we're kissin' on the porch swing
             Eb
Oh, my little sweet thing


e|-------6--------------6---6----|     |---8p6-6---8p6-6------|
B|---3h4---4----3h4-3h4---4---4--|     |----------------------|
G|-3----------3------------------|(X3) |-8-------8------------|(X1)
D|-------------------------------|     |-----------------8----|
A|-------------------------------|     |----------------------|
E|-------------------------------|     |----------------------|

e|--------------------------------------------------------|
B|--------------------------------------------------------|
G|-8-8--8--8--8-7h8--8-8--8-8-8--8-7h8\5-5-5--5/8-8-8-----|
D|--------------------------------------------------------|
A|--------------------------------------------------------|
E|--------------------------------------------------------|

e|--------------------------------------------------------|
B|--------------------------------------------------------|
G|-8-8--8--8--8-7h8--8-8--8-8-8--8-7h8\5-5-5--5/8-8-8-----|
D|--------------------------------------------------------|
A|--------------------------------------------------------|
E|--------------------------------------------------------|


Eb
Sweet thing, the moon is high and the night is young,
          Ab
Come on and meet me, in the backyard under the cotton wood tree
        Bb
It's a good thing,
     Ab
Am I wishin',
           Eb
Oh come on sweet thing, won't you climb on out of your window
                  Ab
While the world's sleepin', you know I need you and there's
                Bb
No way I'll be leavin'
                         Ab
'Till we're kissin' on the porch swing
             Eb
Oh, my little sweet thing

Solo:
e|--------------------------------------------------------------------------|
B|-/11-11--8-9-11--11-11--8-9-11--11-11--8-9-11--11^12-11-11^12-11-11^12-11-|
G|--------------------------------------------------------------------------|
D|--------------------------------------------------------------------------|
A|--------------------------------------------------------------------------|
E|--------------------------------------------------------------------------|

e|-------------/18-18--15-16-18--18^20-18--16^18-16-16^18-------------------|
B|-11--8-9-11---------------------------------------------------------------|
G|--------------------------------------------------------------------------|
D|--------------------------------------------------------------------------|
A|--------------------------------------------------------------------------|
E|--------------------------------------------------------------------------|

e|-15h16p15-----------------------------------------------------------------|
B|----------16--------------------------------------------------------------|
G|-------------15\13-----12h13p12-------------------------------------------|
D|-------------------15-----------13-------------13----13-------------------|
A|-----------------------------------13\11-13/15----15----------------------|
E|--------------------------------------------------------------------------|


(No chords for the first half)
Sweet thing, the moon is high and the night is young,
Come on and meet me, in the backyard under the cotton wood tree
It's a good thing,
Tell me I'm not dreamin',

           Eb
Oh come on sweet thing, won't you climb on out of your window
                  Ab
While the world's sleepin', you know I need you and there's
                Bb
No way I'll be leavin'
                         Ab
'Till we're kissin' on the porch swing
             Eb
Oh, my little sweet thing


Eb                   Ab Eb Ab Eb Ab Eb  (X4)
Do,Do,DoDoDo...      Do-Do-Do-Do-Do-Do


Outro:
e|-------6--------------6---6----|
B|---3h4---4----3h4-3h4---4---4--|
G|-3----------3------------------|(X7)
D|-------------------------------|
A|-------------------------------|
E|-------------------------------|
Tap to rate this tab
 
# A B C D E F G H I J K L M N O P Q R S T U V W X Y Z