Keith Urban - You Gonna Fly tab

Keith Urban - You Gonna Fly
Get Closer (2010)
Tabbed by Craig Sonneveld

Standard Tuning



Intro:
e|------------0-----|
B|-2h3-3-3p2--0-----|
G|-2-----2----1-----|  
D|-2h4-4-4p2--2-----|
A|------------2-----|
E|------------0-----|



 This lead part is played over the intro
e|--------------------------------------------------|
B|-15b17~--12b14rb12~-------------------------------|
G|---------------------11b13b14rb11-9----9-11--/9~--|
D|------------------------------------11------------|
A|--------------------------------------------------|
E|--------------------------------------------------|


Verse 1:


   E  A  E  D            E   D    E   D
e|--------------------------------------------------|
B|----2---------------------------------------------|
G|-1--2--1------2-----2--1-----2--1-------2-----2---|
D|-2--2--2------0-----0--2-----0--2-------0-----0---|
A|-2--0--2--2h4---4h5----2--2h4---2---2h4---4h5-----|
E|-0-----0---------------0--------0-----------------|


Repeat Intro, except end on A the last time


Chorus:

    E  B  A  
e|--0----------------------|
B|--0--4--2----------------|
G|--1--4--2----------------|  X2
D|--2--4--2----------------|
A|--2--2--0--2h4-4/5-5\4---|
E|--0----------------------|   


Verse 2:
Follows same chord pattern as verse 1, except with some fills:



e|-7---(7)~-----------------------------------------|
B|---10b12~----9b10~---9b10rb9----7p5~---7----------|
G|-----------------------------------------/6~------|
D|--------------------------------------------------|
A|--------------------------------------------------|
E|--------------------------------------------------|


Repeat Chorus, then back to intro riff before solo


Solo:

e|--------------------------------------------------5---8b10-5~/----|
B|-3---3-3-3----------------------------------5-8b9---5-------------|
G|-2b4-4-4-4b5rb2p0-----------0---------2h4/6-----------------------|
D|------------------0-3-0-3b4---3p0---------------------------------|
A|----------------------------------3/4-----------------------------|
E|------------------------------------------------------------------|


e|-5-------------------------------------------------|
B|---5-----------------------------------------------|
G|----pb5rb4----------------2b4p0---/--\---/------\--|
D|-----------2h5p2-----------------------------------|
A|-----------------5p2-------------------------------|
E|---------------------0*----------------------------|
                        Drop this open E down to a D


e|--------------------------8----10-----11-----12~--|
B|-7b9rb7p5-----------------------------------------|
G|----------8-7-5---------/9-9/10--10/11--11/12-----|
D|----------------7-5-7b9---------------------------|
A|--------------------------------------------------|
E|--------------------------------------------------|


e|-15----------------(15)-----17-------------------(17)--------|
B|-15b17-17-17-17-17rb15-13---17b19-19-19-19-19-19rb17~~-------|
G|-------------------------------------------------------------|
D|-------------------------------------------------------------|
A|-------------------------------------------------------------|
E|-------------------------------------------------------------|



Outro is the chorus chord repeated with some fills over.

Fill 1             Fill 2                 Fill 3
e|--------------------------------------------------|
B|-7p5-------------------------------------7b9*p5---|
G|-----6~-------------4/6p4~------------------------|
D|--------------------------------------------------|
A|--------------------------------------------------|
E|--------------------------------------------------|
Tap to rate this tab
 
# A B C D E F G H I J K L M N O P Q R S T U V W X Y Z