Keith Urban - Sweet Thing tab

Hey Everyone.  I'm not sure if my last tab went through so i'm going to try to resubmit
it.  I have seen incorrect tabs for this solo since it came out so I slowed the song
down and kept the key in tact.  So here's my take on the solo.  I think it's as close to 
correct as I can get it.  It's tough to tab something out exactly the way you play it

e|--------------------------------------------------------------------------|
B|---11-11-8-9-11--11-11-8-9-11--11-11-8-9-11--11b13-11-11b13-11-11b13------|
G|--------------------------------------------------------------------------|
D|--------------------------------------------------------------------------|
A|--------------------------------------------------------------------------|
E|--------------------------------------------------------------------------|

e|-----------------18-18-15-16-18-18-18b20-18-17b19-16-17b19-17b19-17-------|
B|---11-11-8-9-11-----------------------------------------------------------|
G|--------------------------------------------------------------------------|
D|--------------------------------------------------------------------------|
A|--------------------------------------------------------------------------|
E|--------------------------------------------------------------------------|

e|---15h16p15---------------------------------------------------------------|
B|------------16------------------------------------------------------------|
G|---------------15-13----12h13p12------------------------------------------|
D|---------------------15----------15-13----------13-15-15b17---------------|
A|---------------------------------------15-13-15---------------------------|
E|--------------------------------------------------------------------------|

Play around with it, but that's a pretty solid structure.



************************************

| /   slide up
| \   slide down
| h   hammer-on
| p   pull-off
| ~   vibrato
| +   harmonic
| x   Mute note
| b   Bend
| pb  Pre-bend
| br  Bend release
| pbr Pre-bend release
| brb Bend release bend

************************************
Tap to rate this tab
 
# A B C D E F G H I J K L M N O P Q R S T U V W X Y Z