Song name
# A B C D E F G H I J K L M N O P Q R S T U V W X Y Z

Keith Urban - Til Summer Comes Around tab

I played around with the solo a bit because it just didn't seem to flow as well in the 
other tabs.  So I hope you enjoy my tweaks.
Standard Tuning


e|---------------------------------------------------------|
B|-15b17------14b15--13\12---------10h12b13-r12-10-8-------|
G|-------------------------14------------------------------|
D|---------------------------------------------------------|
A|---------------------------------------------------------|
E|---------------------------------------------------------|

e|---------------------------------------------------------|
B|-6b8--8-8-8-8-8-r6/5-------------------5--------5--------|
G|---------------------7-7p5/4/5-7---5h7-----5h7-----------|
D|----------------------------------------7--------7-------|
A|---------------------------------------------------------|
E|---------------------------------------------------------|

e--------------------------15--15--------------------------|
B-------8---8/12-13-15b17-(17)(17)-r15--13-15\10~~---------|
G-5h7/9---9------------------------------------------------|
D----------------------------------------------------------|
A----------------------------------------------------------|
E----------------------------------------------------------|
Tap to rate this tab
 
# A B C D E F G H I J K L M N O P Q R S T U V W X Y Z