Keith Urban - Put You In A Song tab

Song: Put You in a Song
Artist: Keith Urban
Album: Get Closer

Note: - This tab is incomplete, I'm working on the bridge and solo.

Intro
E|-----------------------------------------------------|
B|---3---3---3-------3---10----10----10----------10----|
G|---2h4-2h4-2h4/7\4-2h4--9h11--9h11--9h11/14\11--9h11-|
D|-x\--------------------------------------------------|
A|-x\--------------------------------------------------|
E|-7\--------------------------------------------------|

Verse 1
Well here you come again and you're looking so fine
You don't notice me, but it's alright
I'm just a guy who wishes that I could be your man someday (Fill 1)
Yeah a picture paints a thousand words it's true (Fill 2)
But it's still not enough for how I feel about you (Fill 2)
I wanna put you in a melody, I gotta set you to (Fill 3) groove

E|-xx--x-|
B|-xx--x-|
G|-xx--x-|
D|-xx--x-| (Repeat as necessary)
A|-xx--x-|
E|-xx--x-|

   Fill 1  Fill 2      Fill 3
E|----------------------------------|
B|-10-10---101010----101010--33--33-|
G|--9--9----9-911-----9-9112b442b44-|
D|----------------------------------|
A|----------------------------------|
E|----------------------------------|

Chorus:
I wanna put you in my car and drive and turn you up loud (Fill 4)
Roll down all the windows and shout (Fill 5) it out 
I love this girl
Oh if I could press (Fill 6) play, repeat how happy I'd be
Where ever I'd go I'd have you there with me
You'd be right where you belong
I wanna put you in a song

      Fill 4             Fill 5          Fill 6
e|-----------------------------------------------|
B|-----------------------------------------------|
G|-----------------------------------------------|
D|--------0--------------------------------0-2p0-|
A|-7/-0h2---0----------4/5-5-4/5-5-----0h2-------|
D|-----------------------------------------------|

Intro

Verse 2:
(Fill 7) Well I'd sing about your smile and your pretty blue eyes (Fill 8)
The way your hair shimmers in the sunlight
(Fill 9) It'd be so easy I'd just write it from my heart (Fill 10)
Cause I gotta tell the world what you mean to me (Fill 2)
Wrap you up in a melody so you'll be stuck (Fill 2) in my head all day
Cause you're already there anyway, (Fill 3) yes you are

    Fill 7    Fill 8   Fill 9       Fill 10
E|----------------------------------------12~-----|
B|--------------7-------3---------14~--12---------|
G|-6b7rb6b7~-----7\6------2b4---------------------|
D|------------------------------------------------|
A|------------------------------------------------|
D|------------------------------------------------|

Chorus

Bridge
And if I get it right everybody will be singing along, oh yeah
And when they see you on the street they'll say
Hey, ain't you the girl in that song?

Solo

Chorus


Tap to rate this tab
 
# A B C D E F G H I J K L M N O P Q R S T U V W X Y Z