Song name
# A B C D E F G H I J K L M N O P Q R S T U V W X Y Z

Keith Urban - Without You tab

Keith Urban - Without You
Get Closer (2010)
Tabbed by Kurtis 

Capo I


Intro:
  G                               Fsus2
e|------------------------------|--------------------------------|
B|--3-----3-------0-1-3-1-------|-----3-------0-1-3-1-0----------|
G|--0--0-----0------------0---0-|-0-0---0---0-----------0---0----|
D|--0-----------0-----------0---|-3-------3---------------3------|
A|------------------------------|--------------------------------|
E|--3---------------------------|--------------------------------|


  Em                                C
e|--------------------------------|-------3-------------3-------3--|
B|-------3-------0-1-3-1-0--------|-------1-------------1-------1--|
G|-0---0---0---0-----------0---0--|-----0---0---0------------------|
D|-0h2-------2---------------1----|---2-------3-------0-------0----|
A|--------------------------------|-3-------------0h2-----2h3------|
E|--------------------------------|--------------------------------|


Verse 1:
G: 3x003x  ->  Fsus2: xx303x  ->  Em: xx203x  ->  C: x32013  ->   

e|-----------------------------|
B|-----------------------------|
G|-----------------------------|
D|-------0-----0---------------|
A|---0h2---2h3-----------------|
E|-----------------------------|

G: 3x003x  ->  Fsus2: xx3035  ->  Em: xx2033  ->  C: x32013  -> 
  
e|---------------------|
B|---------------------|
G|------0--------------|
D|--0h2----2p0---------|
A|-------------3-------|
E|---------------------|



Prechorus:

  D                 Am                D                Am         C
e|-----0---2--0---|-------------3---|-----0---2---0--|---------|--3-|
B|---3----------3-|-1-1---0h1-----1-|---3------------|-1-------|--3-|
G|-2--------------|-2---2-----------|-2--------------|-2-------|--0-|
D|-0-----0---0----|-2---------------|-0-----0---0----|-2-------|--2-|
A|----------------|-0----0----0-----|----------------|-0-------|--3-|
E|----------------|-----------------|----------------|---------|----|

e|-----------------|
B|-----------------|
G|-----0-----------|
D|-0h2-------------|
A|-----------------|
E|-----------------|

Chorus:
G: 3x0033   ->  G/F#: 2x0033  ->  Em: 022033  ->  C:  x32033
G: 3x0033   ->  G/F#: 2x0033  ->  Em: 022033  ->  C:  x32033
G: 3x0033   ->  G/F#: 2x0033  ->  Em: 022033  ->  C:  x32033
G: 3x0033   ->  Fsus2: 1x3013  ->  C: x32013

Intro:
  G                               Fsus2
e|------------------------------|--------------------------------|
B|--3-----3-------0-1-3-1-------|-----3-------0-1-3-1-0----------|
G|--0--0-----0------------0---0-|-0-0---0---0-----------0---0----|
D|--0-----------0-----------0---|-3-------3---------------3------|
A|------------------------------|--------------------------------|
E|--3---------------------------|--------------------------------|


  Em                                C
e|--------------------------------|-------3-------------3-------3--|
B|-------3-------0-1-3-1-0--------|-------1-------------1-------1--|
G|-0---0---0---0-----------0---0--|-----0---0---0------------------|
D|-0h2-------2---------------1----|---2-------3-------0-------0----|
A|--------------------------------|-3-------------0h2-----2h3------|
E|--------------------------------|--------------------------------|

Verse 2:
G: 3x0033   ->  Fsus2: xx3033  ->  Em: xx2033  ->  C:  x32013  
  
e|--------------------------|
B|--1p0---------------------|
G|------2p0-----------------|
D|----------3p2p0-----------|
A|-----------------3--------|
E|--------------------------|


G: 3x0033   ->  Fsus2: xx3033  ->  Em: xx2033  ->  C:  x32013     

e|------------------------------|
B|------------------------------|
G|------0------0----------------|
D|--0h2----0h2------------------|
A|------------------------------|
E|------------------------------|


Prechorus:

  D                 Am                D                Am         C
e|-----0---2--0---|-------------3---|-----0---2---0--|---------|--3-|
B|---3----------3-|-1-1---0h1-----1-|---3------------|-1-------|--3-|
G|-2--------------|-2---2-----------|-2--------------|-2-------|--0-|
D|-0-----0---0----|-2---------------|-0-----0---0----|-2-------|--2-|
A|----------------|-0----0----0-----|----------------|-0-------|--3-|
E|----------------|-----------------|----------------|---------|----|

e|--------------------------------|
B|--1p0--3p1p0--------------------|
G|-------------0------------------|
D|--------------------------------|
A|--------------------------------|
E|--------------------------------|

Chorus:
G: 3x0033   ->  G/F#: 2x0033  ->  Em: 022033  ->  C:  x32033
G: 3x0033   ->  G/F#: 2x0033  ->  Em: 022033  ->  C:  x32033
G: 3x0033   ->  G/F#: 2x0033  ->  Em: 022033  ->  C:  x32033
G: 3x0033   ->  Fsus2: 1x3013  ->  C: x32013

Solo:
G: 3x0033   ->  Fsus2: 1x3013
G: 3x0033   ->  Fsus2: 1x3013
G: 3x0033   ->  Fsus2: 1x3013

Prechorus:

  D                 Am                D                Am         C
e|-----0---2--0---|-------------3---|-----0---2---0--|---------|--3-|
B|---3----------3-|-1-1---0h1-----1-|---3------------|-1-------|--3-|
G|-2--------------|-2---2-----------|-2--------------|-2-------|--0-|
D|-0-----0---0----|-2---------------|-0-----0---0----|-2-------|--2-|
A|----------------|-0----0----0-----|----------------|-0-------|--3-|
E|----------------|-----------------|----------------|---------|----|

Chorus:
G: 3x0033   ->  G/F#: 2x0033  ->  Em: 022033  ->  C:  x32033
G: 3x0033   ->  G/F#: 2x0033  ->  Em: 022033  ->  C:  x32033
G: 3x0033   ->  G/F#: 2x0033  ->  Em: 022033  ->  C:  x32033
G: 3x0033   ->  Fsus2: 1x3013  ->  C: x32013


Intro: 2x
  G                               Fsus2
e|------------------------------|--------------------------------|
B|--3-----3-------0-1-3-1-------|-----3-------0-1-3-1-0----------|
G|--0--0-----0------------0---0-|-0-0---0---0-----------0---0----|
D|--0-----------0-----------0---|-3-------3---------------3------|
A|------------------------------|--------------------------------|
E|--3---------------------------|--------------------------------|


  Em                                C
e|--------------------------------|-------3-------------3-------3--|
B|-------3-------0-1-3-1-0--------|-------1-------------1-------1--|
G|-0---0---0---0-----------0---0--|-----0---0---0------------------|
D|-0h2-------2---------------1----|---2-------3-------0-------0----|
A|--------------------------------|-3-------------0h2-----2h3------|
E|--------------------------------|--------------------------------|

End on a strum:  G:  3x0033


Tap to rate this tab
 
# A B C D E F G H I J K L M N O P Q R S T U V W X Y Z