Song name
# A B C D E F G H I J K L M N O P Q R S T U V W X Y Z

Keith Urban - Raining On Sunday tab

Tabs relative to capo on 4
The listen to the song to figure out the timeing.
  Em                 C  Slide 2 frets up  Em            C
e|--0--------0----0------0-----------------------0---0------|
B|---0-------0------0h1--1-----------3-----------0-----0h1--|
G|----0------0-----------0---------0---0---------0----------|
D|-----2-----2-----------2-------4-------4\2-----2----------|
A|------0h2--2-----------3---3/5--------------2--2----------|
E|-----------0--0--------0-----------------------0--0-------|

   Slide up 2 frets Em
e|-0----------------------0---------------------------------|
B|-1-----------3----------0---------------------------------|
G|-0---------0---0--------0---------------------------------|
D|-2-------4-------4\2----2---------------------------------|
A|-3---3/5-------------2--2---------------------------------|
E|-0----------------------0---------------------------------|

He starts singing on the last strum of Em
Tap to rate this tab
# A B C D E F G H I J K L M N O P Q R S T U V W X Y Z