Song name
# A B C D E F G H I J K L M N O P Q R S T U V W X Y Z

Keith Urban - Where The Blacktop Ends tab

Intro:

-----------------------------------------------------------------------------|
--11~~~~~--11----7-8-7h8p7---------5---3h5p3p2-------------------------------|
--7h9-9-9--7h9-9-----------9-7-6-7---2---------2-0-2--5-2--------------------|
-----------------------------------------------------------------------------|
----------------------------------------------------------3-0-3-0------------|
-----------------------------------------------------------------------------|


-----------------------------------------------------------------------------|
--11~~~~~--11----7-8-7h8p7---------5---3h5p3p2-------------------------------|
--7h9-9-9--7h9-9-----------9-7-6-7---2---------2-0-2~~-----------------------|
-------------------------------------------------------2-0-------------------|
----------------------------------------------------------3-0----------------|
-----------------------------------------------------------------------------|


Fill:
used a few times at the end of the "verse"


-----------------------------------------------------------------------------|
---/5-3----------------------------------------------------------------------|
--------5-2------------------------------------------------------------------|
------------5-2-0------------------------------------------------------------|
------------------3-0--------------------------------------------------------|
-----------------------------------------------------------------------------|


Fill before bridge:
not note for note, but something like this.

-----------------------------------------------------------------------------|
-----------------------------------------------------------------------------|
-----------------------------------------------------------------------------|
-----------------------------------------------------------------------------|
-------0---3b-0--0---3b-0----------------------------------------------------|
---0-3---3------3--3---------------------------------------------------------|


I didn't include the chords since they're readily available. But hopefully these other 
licks will help someone out.
Tap to rate this tab
# A B C D E F G H I J K L M N O P Q R S T U V W X Y Z