Song name
# A B C D E F G H I J K L M N O P Q R S T U V W X Y Z

Keith Urban - Long Hot Summer tab

Hey Guys, this tab is based on the studio and live version of the song. What is tabbed 
here is what keith
actually plays in both the studio and live version which dont differ at all really. The 
only difference would
be the solo when he plays live but ill be tabbing the studio solo, outro solo, and verse 
solo's. I recommend
listening to the song while reading this tab so you can catch on with all the little 
tricks and how keith
strums and plays. In the studio version, the verse solo's are a little hard to hear, the 
one's i tabbed ARE
from the studio version, but you can only really hear them if you listen to the live 
version of the song, same
goes for part of the outro solo also. The tab might seem a little confusing at some 
points, but if you
listen to those certain parts while reading the tab you'll catch on quick. Enjoy!

Standard Tuning
Capo on 1st Fret

/-slide
*-palm mute
h-hammer on
p-pull off
b-bend
w-wiggle


Into/Verse

e---------------------------------------------------------------------------|
b-----------------4------------4p3------------------------------------------|
g-------------------0-------*3------3---------repeat 9x times---------------|
d-------5----------------*3-------------------------------------------------|
a----*5---------------------------------------------------------------------|
e-*3-------*4-*4------------------------------------------------------------|

Pre-Chorus

e------------------------------------------x-x------------------------------|
a-----------------4------------4p3---------3-3------------------------------|
d-------------------0-------*3------3---3--3-3------------------------------|
g-------5----------------*3-----------3----3-3------------------------------|
b----*5------------------------------------0-0------------------------------|
e-*3-------*4-*4---------------------------x-x------------------------------|

Chorus

e-4--4--444--3--33--333--x--xx--xxxx----------------------------------------|
a-4--4--444--4--44--444--3--33--3333----------------------------------------|
d-0--0--000--3--33--333--3--33--3333---5/8/5--3/5/3-------------------------|
g-0--0--000--0--00--000--3--33--3333---3/6/3--------------------------------|
b-3--3--333--x--xx--xxx--0--00--0000----------------------------------------|
e-4--4--444--x--xx--xxx--x--xx--xxxx----------------------------------------|

e-4--4--444--3--33--333--x--xx--xxx--xxxxxxx--------------------------------|
a-4--4--444--4--44--444--3--33--333--4433333-----44-33--------which is the--|
d-0--0--000--3--33--333--3--33--333--3333555--or-------55-333--same thing---|
g-0--0--000--0--00--000--3--33--333--3333333-------------------youre just---|
b-3--3--333--x--xx--xxx--0--00--000--0000000-----------------playing the----|
e-4--4--444--x--xx--xxx--x--xx--xxx--xxxxxxx-----------notes with the chord-|

e-4--4--444--3--33--333--x--xx--xxx-33-3-x-444-xx--444-xx--444-xx-----------|
a-4--4--444--4--44--444--3--33--333-44-4-x-444-xx--444-xx--444-xx-----------|
d-0--0--000--3--33--333--3--33--333-55-5-x-330-xx--330-xx--330-xx-----------|
g-0--0--000--0--00--000--3--33--333-55-5-x-000-xx--000-xx--000-xx-----------|
b-3--3--333--x--xx--xxx--0--00--000-33-3-x-xx3-xx--xx3-xx--xx3-xx-----------|
e-4--4--444--x--xx--xxx--x--xx--xxx-xx-x-x-334-xx--334-xx--334-xx--12/3-----|

Interlude

e---------------------------------------------------------------------------|
b-----------------4------------4p3---------------------4------------4p3-----|
g-------------------0-------*3------3--------------------0-------*3---------|
d-------5----------------*3------------------5----------------*3------------|
a----*5-----------------------------------*5--------------------------------|
e-*3-------*4-*4-----------------------*3-------*4-*4-----------------------|

Verse 2

e---------------------------------------------------------------------------|
b-----------------4------------4p3------------------------------------------|
g-------------------0-------*3------3---------repeat 7x Times---------------|
d-------5----------------*3-------------------------------------------------|
a----*5---------------------------------------------------------------------|
e-*3-------*4-*4------------------------------------------------------------|

Verse 2 Solo Fill #1

e-----------------------------------|
a-----4-6-6b7rx-4h6p4h6-------------|
d-3/5-------------------3/5w--------|
g-----------------------------------|
b-----------------------------------|
e-----------------------------------|

Verse 2 Solo Fill #2

e-------11--------------------------|
a-11b13----11-11b13(hold)-----------|
d-----------------------------------|
g-----------------------------------|
b-----------------------------------|
e-----------------------------------|

Verse 2 Solo Fill #3 / Pre-Chorus 2

e--------------------------------------x-x-xxxx---|
a-6b8-6-4-3----------------------------3-3-3333---|
d-----------5w--3w---------------------3-3-3333---|
g----------------------3w--0h3p0-------3-3-3333---|
b--------------------------------3w----0-0-0000---|
e--------------------------------------x-x-xxxx---|

Chorus 2

e-4--4--444--3--33--333--x--xx--xxxx----------------------------------------|
a-4--4--444--4--44--444--3--33--3333----------------------------------------|
d-0--0--000--3--33--333--3--33--3333---5/8/5--3/5/3-------------------------|
g-0--0--000--0--00--000--3--33--3333---3/6/3--------------------------------|
b-3--3--333--x--xx--xxx--0--00--0000----------------------------------------|
e-4--4--444--x--xx--xxx--x--xx--xxxx----------------------------------------|

e-4--4--444--3--33--333--x--xx--xxx--xxxxxxx--------------------------------|
a-4--4--444--4--44--444--3--33--333--4433333-----44-33--------which is the--|
d-0--0--000--3--33--333--3--33--333--3333555--or-------55-333--same thing---|
g-0--0--000--0--00--000--3--33--333--3333333-------------------youre just---|
b-3--3--333--x--xx--xxx--0--00--000--0000000-----------------playing the----|
e-4--4--444--x--xx--xxx--x--xx--xxx--xxxxxxx-----------notes with the chord-|

e-4--4--444--3--33--333--x--xx--xxx-33-3-x-444-xx--444-xx--444-xx-----------|
a-4--4--444--4--44--444--3--33--333-44-4-x-444-xx--444-xx--444-xx-----------|
d-0--0--000--3--33--333--3--33--333-55-5-x-330-xx--330-xx--330-xx-----------|
g-0--0--000--0--00--000--3--33--333-55-5-x-000-xx--000-xx--000-xx-----------|
b-3--3--333--x--xx--xxx--0--00--000-33-3-x-xx3-xx--xx3-xx--xx3-xx-----------|
e-4--4--444--x--xx--xxx--x--xx--xxx-xx-x-x-334-xx--334-xx--334-xx-----------|

Interlude 2

e-33x-444x-333x-xxx-x-------------------------------------------------------|
a-44x-444x-444x-333-3-------------------------------------------------------|
d-55x-000x-333x-333-3--repeat 2x times--------------------------------------|
g-55x-000x-000x-333-3-------------------------------------------------------|
b-33x-333x-xxxx-000-0-------------------------------------------------------|
e-xxx-444x-xxxx-xxx-x-------------------------------------------------------|

Bridge

e-4----4----x--xxxxxxxxx---------------------4----4----x--------------------|
a-4----4----3--443333333--or--44-33----------4----4----0--------------------|
d-0----0----3--333355333------------55-333---0----0----0--------------------|
g-3----0----3--333333333---------------------3----0----3--------------------|
b-4----3----0--000000000---------------------4----3----3--------------------|
e-x----4----x--xxxxxxxxx---------------------x----4----0--------------------|

Solo

e---------------------------------------------------------------------------|
a-13b15r13-11-13--8/11/8----8--4-6-8-11-11b13-11----11b13-11w---------------|
d------------------------10----------------------10-------------------------|
g---------------------------------------------------------------------------|
b---------------------------------------------------------------------------|
e---------------------------------------------------------------------------|

e---------------------------------------8------10-----11-----13-------------|
a-13b15r13-11-13--8/11/8----8--4-6-8-11-11b13--13b15--14b16--16b18---16w----|
d------------------------10-------------------------------------------------|
g---------------------------------------------------------------------------|
b---------------------------------------------------------------------------|
e---------------------------------------------------------------------------|

Bridge 2

e-4-----------3-----------x-----------3-----------x-------------------------|
a-4-----------4-----------3-----------4-----------3-----------repeat again--|
d-0-8x-times--3-8x-times--3-8x-times--5-4x-times--3-4x-times----with the----|
g-0-----------0-----------3-----------5-----------3-----------exception of--|
b-3-----------x-----------0-----------3-----------0----------the last three-|
e-4-----------x-----------x-----------x-----------x-------------chords------|

Pre-Chorus 3

e-x-x-xxxx---|
a-3-3-3333---|
d-3-3-3333---|
g-3-3-3333---|
b-0-0-0000---|
e-x-x-xxxx---|

Final Chorus

e-4--4--444--3--33--333--x--xx--xxx-33-3-x-444-xx--444-xx--444-xx--444-xx---|
a-4--4--444--4--44--444--3--33--333-44-4-x-444-xx--444-xx--444-xx--444-xx---|
d-0--0--000--3--33--333--3--33--333-55-5-x-330-xx--330-xx--330-xx--330-xx---|
g-0--0--000--0--00--000--3--33--333-55-5-x-000-xx--000-xx--000-xx--000-xx---|
b-3--3--333--x--xx--xxx--0--00--000-33-3-x-xx3-xx--xx3-xx--xx3-xx--xx3-xx---|
e-4--4--444--x--xx--xxx--x--xx--xxx-xx-x-x-334-xx--334-xx--334-xx--334-xx---|

Outro Solo

e------------------8--------8-8---------------------------------------------|
a--------------------11w------11b13-b13b13b13-11w--10h11p10-----------------|
d-10b12r10-8w-----------------------------------------------8w--------------|
g---------------------------------------------------------------------------|
b---------------------------------------------------------------------------|
e---------------------------------------------------------------------------|

e-44x-33x-xxx--------11-----------------------------------------------------|
a-44x-44x-33x------11---13/16w-----13b15-13-11-13b15r13-11w---11-11h13--11w-|
d-00x-33x-33x--6/12---------------------------------------------------------|
g-00x-00x-33x---------------------------------------------------------------|
b-33x-xxx-00x---------------------------------------------------------------|
e-44x-xxx-xxx---------------------------------------------------------------|

e---------------------------------------------------------------------------|
a-18b20-b20b20-17h18p17-16------16-18-----------------16--18--16--18--------|
d----------------------------19-------17b19--17/15w-----15--15--15----------|
g---------------------------------------------------------------------------|
b---------------------------------------------------------------------------|
e---------------------------------------------------------------------------|

e-16-15h16p15---------------------------------------------------------------|
a-------------16--15x15x-13w-15-11w-13-8w-11------8-----(8             )----|
d--------------------------------------------8w---10b12-(10b12 8x times)----|
g---------------------------------------------------------------------------|
b---------------------------------------------------------------------------|
e---------------------------------------------------------------------------|

e---------------------------------------------------------------------------|
a---------------------------------------------------------------------------|
d-10/13-11-10-8w------------------------------------------------------------|
g---------------------------------------------------------------------------|
b---------------------------------------------------------------------------|
e---------------------------------------------------------------------------|

Outro Riff

e-44x-333x-xxxx-xx-xx-------------------------------------------------------|
a-44x-444x-333x-44-44-------------------------------------------------------|
d-00x-333x-333x-55-55--repeat 6x--------------------------------------------|
g-00x-000x-333x-55-55-------------------------------------------------------|
b-33x-xxxx-000x-33-33-------------------------------------------------------|
e-44x-xxxx-xxxx-xx-xx-------------------------------------------------------|

End of Song!!!
Tap to rate this tab
 
# A B C D E F G H I J K L M N O P Q R S T U V W X Y Z