Song name
# A B C D E F G H I J K L M N O P Q R S T U V W X Y Z

Keith Urban - Long Hot Summer tab

Long Hot Summer                                 


                                                                     Keith Urban
Tabbed By:
www.kzooguitarlessons.com

Track 1 (Capo 1)



                                                     Play 6 Times    
              
E||--------------------------|-------------------------------------||
B||-----------------3--------|--------3--------2-------------------||
G||--------4-----------0-----|-----2--------------2---------------*||
D||-----4--------------------|--0-----------2---------------------*||
A||--2-----------2-----------|-----------0-----------0-------------||
E||-----------3-----------3--|-------------------------------------||


        
--------------------------|--------------------------|----------------------|
-----------------3--------|--3--------3--------3-----|--2----2--------------|
--------4-----------0-----|-----2--------2--------2--|--2----2--------------|
-----4--------------------|--------2--------2--------|--2----2--------------|
--2-----------2-----------|--------------------------|----------------------|
-----------3-----------3--|--------------------------|----------------------|


Chorus:  
--------------------------|--------------------------|
--------------------------|--------------------------|
--------------------------|--7--7--7--7--7--7--7--7--|
--5--5--5--5--5--5--5--5--|--7--7--7--7--7--7--7--7--|
--5--5--5--5--5--5--5--5--|--5--5--5--5--5--5--5--5--|
--3--3--3--3--3--3--3--3--|--------------------------|



--------------------------|--------------------------|
--------------------------|--------------------------|
--2--2--2--2--2--2--2--2--|--4--4--4--4--2--2--2--2--|
--2--2--2--2--2--2--2--2--|--4--4--4--4--2--2--2--2--|
--0--0--0--0--0--0--0--0--|--2--2--2--2--0--0--0--0--|
--------------------------|--------------------------|


  
--------------------------|--------------------------|
--------------------------|--------------------------|
--------------------------|--7--7--7--7--7--7--7--7--|
--5--5--5--5--5--5--5--5--|--7--7--7--7--7--7--7--7--|
--5--5--5--5--5--5--5--5--|--5--5--5--5--5--5--5--5--|
--3--3--3--3--3--3--3--3--|--------------------------|



--------------------------|--------------------------|
--------------------------|--------------------------|
--2--2--2--2--2--2--2--2--|--2--2--2--2--------------|
--2--2--2--2--2--2--2--2--|--2--2--2--2-----5-----5--|
--0--0--0--0--0--0--0--0--|--0--0--0--0-----5-----5--|
--------------------------|-----------------3-----3--|


 
--------------------------|--------------------------|
--------------------------|--------------------------|
--------------------------|--7--7--7--7--7--7--7--7--|
--5--5--5--5--5--5--5--5--|--7--7--7--7--7--7--7--7--|
--5--5--5--5--5--5--5--5--|--5--5--5--5--5--5--5--5--|
--3--3--3--3--3--3--3--3--|--------------------------|


 
--------------------------|--------------------------|-----------------------|
--------------------------|--------------------------|-----------------------|
--2--2--2--2--2--2--2--2--|--4--4--4--4--4-----------|-----------------------|
--2--2--2--2--2--2--2--2--|--4--4--4--4--4--4--4--5--|--5-----------4--4--5--|
--0--0--0--0--0--0--0--0--|--2--2--2--2--2--4--4--5--|--5-----------4--4--5--|
--------------------------|-----------------2--2--3--|--3-----------2--2--3--|


 
-----------------------|-----------------------||
-----------------------|-----------------------||
-----------------------|-----------------------||
--5-----------4--4--5--|--5-----------4--4--5--||
--5-----------4--4--5--|--5-----------4--4--5--||
--3-----------2--2--3--|--3-----------2--2--3--||




Duration Legend
---------------
W - whole
H - half
Q - quarter
E - 8th
S - 16th
T - 32nd
X - 64th
. - note dotted
|-n-|  - n-tuplets


Tablature Legend
----------------
L - tied note
x - dead note
g - grace note
(n) - ghost note
> - accentuded note
NH - natural harmonic
AH - artificial harmonic
TH - tapped harmonic
SH - semi harmonic
PH - pitch harmonic
h - hammer on
p - pull off
b - bend
br - bendRelease
pb - preBend
pbr - preBendRelease
brb - bendReleaseBend
\n/ - tremolo bar dip
\n - tremolo bar dive
-/n - tremolo bar Release up
/n\ - tremolo bar inverted dip
/n - tremolo bar return
-\n - tremolo bar Release down
S - shift slide
s - legato slide
/ -  slide into from below or out of upwards
\ -  slide into from above or out of downwards
~ - vibrato
W - wide vibrato
tr - trill
TP - tremolo picking
T - tapping
S - slap
P - pop
< - fade in
^ - brush up
v - brush down
Tap to rate this tab
# A B C D E F G H I J K L M N O P Q R S T U V W X Y Z