Guitaretab - guitar tabs
Song name
# A B C D E F G H I J K L M N O P Q R S T U V W X Y Z

Keith Urban - For You tab

For You - Keith Urban 

Tabbed By: EGMusic

No Capo

Intro Riff
e|-----------------------0----|
B|-----------0--0-------------|
G|--(9)/7-----------7------7--|   x4
D|--------9-------9---9-------|
A|----------------------------|
E|----------------------------|


Verse 1
Bm
All I saw was smoke and fire
                   G
I didnt feel a thing
    D              F#m
But suddenly I was rising higher
Bm                                        G
And I felt like I just made the biggest mistake
       D                       F#m
When I thought about my unborn child

Pre-Chorus
                          A
When I thought about my wife
                        Em
And the answer rang out clear
                     A
From somewhere up above
                 Em                                G
No greater gift has man than to lay down his life for love   (12th Fret Palm Mute)

Chorus
G  D          A                Bm
       I wonder, Would I give my life?
G  D   A                        Bm
       Could I make that sacrifice
G  D   A                         Bm        A               Em
       If it came down to it, would I take the bullet? I would 
         G               Bm
Yes I would, for you

(Intro Riff)

Verse 2        
Bm
Baby you dont understand
                               G
I dont understand it all myself
D                                     A          Bm
Theres a brother on my left and another on my right
Bm
And in his pocket just like mine 
                G
Hes got a photograph
         D                       F#m
And theyre waiting for him back home

Pre-Chorus
                       A
Its weighing on my mind
                         Em
Im not trying to be a hero
                A
I dont wanna die
                        Em
But right now in this moment
                     
You dont think twice


(Chorus x1)

Bridge
A
You dont think about right
Em
You dont think about wrong
A
You just do what you gotta do
Em F#m G              
      To fend your own
A                 Em        G
And Id do the same, for you.

Guitar Solo - Bm G Bm G Bm G A G

G D A
      I would give my life
G D    Em (building)             (Drop Out)
     I would make that sacrifice

G  D   A                         Bm        A               Em
       If it came down to it, would I take the bullet? I would 
         G              
Yes I would, for you

(Chorus Progression until end)


Electric Guitar Solo Tab
[ Tab from: http://www.guitaretab.com/k/keith-urban/318141.html ]
Solo tabbed by Mychael Allen and slightly modified by EGMusic

e|-----7b10---10rb7---7-----5h7/10\7-----------------------------|
B|------------------------------------5h7/10\7-------------------|
G|---------------------------------------------------------------|
D|---------------------------------------------------------------|
A|---------------------------------------------------------------|
E|---------------------------------------------------------------|

e|---------------------------------------------------------------|
B|---------------------------------------------------------------|
G|---6b7--6b7p4--------------------------------------------------|
D|--------------7-4----------------------------------------------|
A|------------------7-6-4----------------------------------------|
E|------------------------5/7b10---------------------------------|

e|----14----14----14----14---------14----14----14----14----------|
B|----17b19-17b19-17b19-17b19------17b19-17b19-17b19-17b19-------|
G|---------------------------------------------------------------|
D|---------------------------------------------------------------|
A|---------------------------------------------------------------|
E|---------------------------------------------------------------|

e|----14----14----14---------------------------------------------|
B|----17b19-17b19-17b19--------------17b20-----------------------|
G|---------------------------------------------------------------|
D|---------------------------------------------------------------|
A|---------------------------------------------------------------|
E|---------------------------------------------------------------|

e|---------------------------------------------------------------|
B|---17b20-17b20-17b20r17--14h17-12h14-10h12-7h10----------------|
G|------------------------------------------------6--------------|
D|---------------------------------------------------------------|
A|---------------------------------------------------------------|
E|---------------------------------------------------------------|
                             
e|---------------------------------------------------------------|
B|---15/17-15-17-15-17-15~~--------------------------------------|
G|---14/16-14-16-14-16-14~~--------------------------------------|
D|---------------------------------------------------------------|
A|---------------------------------------------------------------|
E|---------------------------------------------------------------|

Please feel free to comment if you have any suggestions!
Sincerely,
EGMusic
Related for For You tab
For You chords by Keith Urban