Song name
# A B C D E F G H I J K L M N O P Q R S T U V W X Y Z

Keith Urban - Highway Dont Care tab

This is Tim McGraw, ft Taylor Swift & Keith Urban's "Highway Don't Care", just Keith Urban's solos. 
That is why I decided to publish it under Keith Urban.


(intro)
e|----------------------------------------------------------|
B|--------------------------------------2---2---------------|
G|--------------------------------------2---2---------------|
D|-2h4-4-4--2h4-4p2---2h4-------2h4-4-4-2h4-4p2---2---------|
A|------------------5-----2-2-2-----------------5---0-0-0-0-|
D|----------------------------------------------------------|

e|--------------------------------------------------------------------|
B|--------------------------------------------------------------------|
G|-----------------------------------2--------------------------------|
D|-2h4-4-4~-2h4-4~-2---------2h4-4-4-2-4-4-4p2---2--------0-2-4-------|
A|-------------------2-2-2-2---------2---------5---0--0-2-------------|
D|--------------------------------------------------------------2br-0-|



(instrumental-bridge)
e|-11b~r-10-9-10~-9-------------------------------------------------|
B|------------------12-10-12~---------------------------------------|
G|----------------------------s11-14-11~----11-11br-9----------9----|
D|---------------------------------------14-----------12-11-12------|
A|---------------------------------------------------------------12-|
D|------------------------------------------------------------------|

e|-s12----------------------------------------5----7----9-----10----11b----------16-|
B|-----14---------------------------------------------------------------14-13-------|
G|--------14------------------------------------------------------------------13----|
D|-----------14-11-11br--------------------s5---s7---s9---s11---s12-----------------|
A|----------------------14-12-14br--------------------------------------------------|
D|---------------------------------12-14b~------------------------------------------|



(instrumental-out)
e|-14b-14-14~-12-12~--------12-14-14b-14-14~-12-12~--------12-14b-14-14~-12-12~-------|
B|-------------------15-15~-------------------------15-15~---------------------15-15~-|
G|------------------------------------------------------------------------------------|
D|------------------------------------------------------------------------------------|
A|------------------------------------------------------------------------------------|
D|------------------------------------------------------------------------------------|

e|-12-14-13b-12~--------------------------------------------------------------------------|
B|----------------9-10-12-9-10-12-9-10-12-9-10-12-9-10-12-9-10-12-9-10-12-9-10-12-9-10-12-|
G|----------------------------------------------------------------------------------------|
D|----------------------------------------------------------------------------------------|
A|----------------------------------------------------------------------------------------|
D|----------------------------------------------------------------------------------------|

e|------------------------------------------------------------------------------11b-13b-14b-16b-16b~|
B|-9-10-12-9-10-12-9h10h12p10p9-12p10p9-12p10p9-12p10p9-12p10p9-12p10p9-12p10p9---------------------|
G|--------------------------------------------------------------------------------------------------|
D|--------------------------------------------------------------------------------------------------|
A|--------------------------------------------------------------------------------------------------|
D|--------------------------------------------------------------------------------------------------|
Tap to rate this tab
# A B C D E F G H I J K L M N O P Q R S T U V W X Y Z