Song name
# A B C D E F G H I J K L M N O P Q R S T U V W X Y Z

Keith Urban - Highway Dont Care tab

NOTE: There are two guitars playing in this song, one is in dropped D and plays a little riff
near the end of the intro. I have not included this as the other tabs have it. Look there
for it. If you play in dropped D, just put the 3 on the low E up to a 5 and 2 to a 4.. Fixed.

Tuning: Standard (See above note)

e|---------------------------------------------------------------------------------------|
B|---------------------------------------------------------------------------------------|
G|---------------------------------------------------------------------------------------|
D|-2h4-4~----2h4-4~--4p2---2h4---------------2h4-4~---2h4-4~--4p2---2~-------------------|
A|---------5-------------5-----2~-2-2-2-2-------------------------5----0-0-0-0-0-0-0--0--|
E|-----------------------------------------3--------3--------------------------------2---|

e|---------------------------------------------------------------------------|
B|---------------------------------------------------------------------------|
G|---------------------------------------------------------------------------|
D|-2h4-4~--2h4-4~--2h4---------------2h4-4~---2h4-4~--4p2---2----------------|
A|---------------------2~-2-2-2-2-2-----------------------5---0-0-0-0-0-0----|
E|---------------------------------3--------3--------------------------------|

Solo:
(Tried my best to sort of show rhythm of it as well using spacing)

e|-----------------------------------------------------------------|
B|-15b~--s15-14-14b~-12---12~-------10-----------------------------|
G|---------------------14-------s11----11s9-11b~--9--7--6-7-9------|
D|------------------------------------------------------------7~---|
A|-----------------------------------------------------------------|
E|-----------------------------------------------------------------|
                                                  M  M  M M

e|-s12-9---------------------------------------------------------------------------|
B|-------10------------------------------------------------------------------------|
G|----------9--7-6h7p6-----------------------12-------14--------16-------18--------|
D|----------------------7--5-------------------------------------------------------|
A|---------------------------7br-5-7~~--s10----10s12----12s-14----14s16----16------|
E|---------------------------------------------------------------------------------|

e|-----------------17~---|
B|-----------------------|
G|-19-19b-19-18-19-------|
D|-----------------------|
A|-----------------------|
E|-----------------------|
Tap to rate this tab
# A B C D E F G H I J K L M N O P Q R S T U V W X Y Z