Song name
# A B C D E F G H I J K L M N O P Q R S T U V W X Y Z

Keith Urban - Somebody Like You tab

Intro: (originally on banjo, but converted to guitar)

e-----------0-------------0----0------------0-----------0-----0--------|
B--------0-------------0-----0------------0----------0-----0-----------|
G---8h9--------9/11-11-----------11-11/13-----13h14-------------14-----|
D----------------------------------------------------------------------|
A----------------------------------------------------------------------|
E----------------------------------------------------------------------|

It's pretty much hold the G string and pick e, B, and G randomly. That's what I do.

Verse: E, Asus2
Palm mute (sort of)

e---X----X----X----X----X----X----X----X----X----X----X----X-----|
B---X----X----X----X----X----X----X----X----X----X----X----X-----|
G---1----1----1--1h2----1----1----1--1h2----1----1----1--1h2-----|
D---2----2----2----2----2----2----2----2----2----2----2----2-----|
A---2----2----2----2----2----2----2----2----2----2----2----2-----|
E---0----0----0----0----0----0----0----0----0----0----0----0-----|

e---0----0----0----0----0----0----0----0----0----0----0----0-----|
B---0----0----0----0----0----0----0----0----0----0----0----0-----|
G---2----2----2----2----2----2----2----2----1----1----1----1-----|
D---2----2----2----2----2----2----2----2----2----2----2----2-----|
A---0----0----0----0----0----0----0----0----2----2----2----2-----|
E---X----X----X----X----X----X----X----X----0----0----0----0-----|

e---0----0----0----0----0----0----0----0----0----0----0----0-----|
B---0----0----0----0----0----0----0----0----0----0----0----0-----|
G---4----4----4----4----2----2----2----2----1----1----1--1h2-----|
D---4----4----4----4----2----2----2----2----2----2----2----2-----|
A---2----2----2----2----0----0----0----0----2----2----2----2-----|
E---0----0----0----0----0----0----0----0----0----0----0----0-----|

(listen to the song for the rhythm)

From the beginning of the verse, the chord progression is pretty much...
E, E, Asus2, E, B(ish), Asus2, E

    E | Asus2 | B
e---0-----0-----0-----|
B---0-----0-----0-----|
G---1-----2-----4-----|
D---2-----2-----4-----|
A---2-----0-----2-----|
E---0-----0-----0-----|

Chorus: Asus2, E, Asus2, C#(ish)

   C#
e---0---|
B---0---|
G---6---|
D---6---|
A---4---|
E---X---|

                   Asus2
I want to feel the sun shine
                       E
Shining down on me and you
                          Asus2
When you put your arms around me
                                         C#            Asus2
You let me know there's nothing in this world I can't do


Solo... Good luck on finding that, because I don't know what he does.
Tap to rate this tab
# A B C D E F G H I J K L M N O P Q R S T U V W X Y Z