Song name
# A B C D E F G H I J K L M N O P Q R S T U V W X Y Z

Keith Urban - Even Stars Fall For You tab

e|-------------------------------------------------|
B|-------------------------------------------------|
G|-------------------------------------------------|
D|-------------------------------------------------|
A|-5-5-5-5-5-5-5-5-5-5h7-7p0-----------------------|
E|----------------------------5-5-5-5-5-5-5-5-5----|


e|-------------------------------------------------|
B|-------------------------------------------------|
G|-------------------------------------------------|
D|-------------------------------------------------|
A|-7-7-7-7-7-7-7-7-7-7h9-9p7-----------------------|
E|----------------------------3-3-3-3-3-3-3-3-3----|

and then repeat the whole thing ones
Tap to rate this tab
 
# A B C D E F G H I J K L M N O P Q R S T U V W X Y Z