Song name
# A B C D E F G H I J K L M N O P Q R S T U V W X Y Z

Keith Urban - Somewhere In My Car tab

Song: Somewhere In My Car
Artist: Keith Urban
Album: Fuse
Tabs By: Maksimum

Capo On 3rd Fret

:::::::::::::::::::::::::::::::::::::::::::::::::::::::::::::::::::::
:::::::::::::::::::::::::::::::::::::::::::::::::::::::::::::::::::::

Intro:

E -----------------------------------3---2---------------------------|
B ---------1---0-------------------0---0---3-------------------------|
G -------0---0---0---2-----------------------------------------------|
D -------------------------------------------------------------------|
A -----3-------------------------------------------------------------|
E -------------------------------3-----------------------------------|

E -----------------------------------3---2--3------------------------|
B ---------1---0-------------------0---0-----------------------------|
G -------0---0---0---2-----------------------------------------------|
D -----2-------------------------0-----------------------------------|
A -------------------------------------------------------------------|
E -------------------------------------------------------------------|

Chords:

C                         G
I'm driving home tonight, catching all red lights
Em                   D
That's alright cause I don't want to be alone
C                           G
There's nobody waitin' there, cold and empty bed
Em                    D
Words I wished I'd said come on the radio


C          G Em                             D
Ooh, oh, oh, and I don't know why I do this to myself
C          G Em                          D
Ooh, oh, oh, I know you're with someone else


          C
But in my mind were somewhere in my car
G                    Em
And it's raining hard on the streetlight glow
D                     C
You got your lips on mine, its gasoline on fire
G              Em                                    D
I never will forget, you grabbed my shirt and pulled it over my head
C
And your fingertips slide up and down my back
G
Breathin' hard, steamin' up the glass
Em                                          D
Id give anything if I could bring you back home


C G Em D

C                           G
So, I've been sleeping til noon in the same bedroom
Em                    D
Where I once held you and its breaking my heart
C                   D
I should take down all those pictures from my wall
Em               D
Promises we made won't fill this empty space


C          G Em                               D
Ooh, oh, oh, and I don't know why I just cant let you go
C          G Em                            D
Ooh, oh, oh, I know you're never coming back


          C
But in my mind were somewhere in my car
G                    Em
And it's raining hard on the streetlight glow
D                     C
You got your lips on mine, its gasoline on fire
G              Em                                    D
I never will forget, you grabbed my shirt and pulled it over my head
C
And your fingertips slide up and down my back
G
Breathin' hard, steamin' up the glass
Em                                          D
Id give anything if I could bring you back home


Guitar Solo

          C
But in my mind were somewhere in my car
G                    Em
And it's raining hard on the streetlight glow
D                     C
You got your lips on mine, its gasoline on fire
G              Em                                    D
I never will forget, you grabbed my shirt and pulled it over my head
C
And your fingertips slide up and down my back
G
Breathin' hard, steamin' up the glass
Em                                          D
Id give anything if I could bring you back home

Outro

C G Em D (x6)

E ----2--3--3----------2--3--3----------2--3--3---------2--3--5------|
B ------------5--5-------------3--3-------------5--5------------3--3-|
G -------------------------------------------------------------------|
D -------------------------------------------------------------------|
A -------------------------------------------------------------------|
E -------------------------------------------------------------------|

:::::::::::::::::::::::::::: Good Luck ::::::::::::::::::::::::::::::
Tap to rate this tab
 
# A B C D E F G H I J K L M N O P Q R S T U V W X Y Z