Song name
# A B C D E F G H I J K L M N O P Q R S T U V W X Y Z

Keith Urban - Cop Car tab

Keith Urban - Cop Car

Tuning: Half a step down
(Eb,Ab,Db,Gb,Bb,eb)

Chords used:
G5 - 3x0033
D - xx0232
A - x02220
Bm7 - x24232

You can also used the sus2 chords for G and D. They both sound great, I'll
post the fingerings below.

Gsus2 - xx5035
Dsus2 - xx0230

Intro
G5,D,A 2x or you can play
eb|-----7--7------|
Bb|--8--7--7--5---|
Gb|--7--7--7--6---|
Db|---------------|
Ab|---------------|
Eb|---------------|

Verse 
G5        D
We drove right past
         A
That no trespassing sign
G5     D
We sat on the tailgate
                A
And watched the planes take off
G5             D
We thought we had all night

There was no need to rush
              A                     G5
That's when those cops came pulling up
  D                                A
And I thought, man, ain't this some shhhh

Pre-Chorus
                   G5    D                    A
Your daddy's gonna kill me, but if I survive tonight
                  G5   D
I wouldn't change one thing
                      A
Baby, yeah I know it sounds crazy

Chorus
              G5                      D
But there was somethin' 'bout the way the blue lights were shinin'
                         A
Bringing out the freedom in your eyes
      G5                    D
I was too busy watching you going wild child
                              A
To be worried about going to jail
                       G5         D
You were thinking that running for it would make a good story
                                 A
I was thinking you were crazy as hell
               G5        D
And you were so innocent, but you were stealing my heart
               A
I fell in love in the back of a cop car

eb|-----7--7------|
Bb|--8--7--7--5---|
Gb|--7--7--7--6---|You can play this throughout the
Db|---------------|second verse if you'd like.
Ab|---------------|
Eb|---------------|

eb|---------------|1:21
Bb|---------------|
Gb|--(7)b(9)r(7)--|Bend the string behind the nut.
Db|---------------|
Ab|---------------|
Eb|---------------|

Verse 
G5       D
Man, they weren't playin'
                     A
They sure threw those cuffs on quick
     G5        D                         A       
You tried to sweet talk 'em they didn't fall for it, but I did
G5       D
You were on the left

I was on the right
            A                                     G5
I knew you didn't smoke when you asked him for a light
D                                     A
And I laughed he got mad and slammed the door

Pre-Chorus
                            G5   D                    A
I swear your daddy's gonna kill me, but if I survive tonight
                  G5   D
I wouldn't change one thing
                      A
Baby, yeah I know it sounds crazy

Chorus
              G5                      D
But there was somethin' 'bout the way the blue lights were shinin'
                         A
Bringing out the freedom in your eyes
      G5                    D
I was too busy watching you going wild child
                              A
To be worried about going to jail
                       G5         D
You were thinking that running for it would make a good story
                                 A
I was thinking you were crazy as hell
               G5        D
And you were so innocent, but you were stealing my heart
               A
I fell in love in the back of a cop car
 G5     D        A
(Oh ooh oh ooh) Ooh, and you were like
 G5     D    A
(Oh ooh oh ooh)

Bridge
G5              D
Side by side and locked in tight
                             A
They were taking their time, but we didn't mind
    G5
We talked and we laughed
D
We sat real close
       Bm7               A
By the time they let us go I was already gone

Solo
eb|-----------------------------------------------------------------------------|
Bb|--13b15-15b17-17b19-19b22~--17b19-pb19r-17p15h17~-14b15r14-12\10-12p10-10~\--|
Gb|-----------------------------------------------------------------------------|
Db|-----------------------------------------------------------------------------|
Ab|-----------------------------------------------------------------------------|
Eb|-----------------------------------------------------------------------------|
   Slightly lift finger
   off of the note after each
  attack.
      |---------|
eb|--------------------------------10\--|
Bb|--/10-10-10-10-10h12~-10--------10\--|
Gb|-------------------------11\7~-------|
Db|-------------------------------------|
Ab|-------------------------------------|
Eb|-------------------------------------|

Chorus
          G5                      D
There was somethin' 'bout the way the blue lights were shinin'
                         A
Bringing out the freedom in your eyes
      G5                    D
I was too busy watching you going wild child
                              A
To be worried about going to jail
                       G5         D
You were thinking that running for it would make a good story
                                 A
I was thinking you were crazy as hell
               G5        D
And you were so innocent, but you were stealing my heart
               A
I fell in love in the back of a cop car
 G5     D                      A
(Oh ooh oh ooh) I fell in love in the back of a cop car
     Hold
eb|--------17--|
Bb|--17b19-----|
Gb|------------|  3:30
Db|------------|
Ab|------------|
Eb|------------|              

 G5     D    A
(Oh ooh oh ooh)

eb|-----------------------------|
Bb|--17b19r17-15-14b15r14-------|
Gb|-----------------------14~\--| 3:37
Db|-----------------------------|
Ab|-----------------------------|
Eb|-----------------------------|

Bridge
    G5              D
Oh, side by side and locked in tight
                             A
They were taking their time, but we didn't mind
    G5
We talked and we laughed
D
We sat real close
                         A
By the time they let us go I was already gone

eb|--------------------------------|
Bb|--/17-15-17b19-pb19b20r17-17~\--|
Gb|--------------------------------| 3:54
Db|--------------------------------|
Ab|--------------------------------|
Eb|--------------------------------|
              G5    D
I was already gone baby
               A                    G5
I fell in love in the back of a cop car
Tap to rate this tab
# A B C D E F G H I J K L M N O P Q R S T U V W X Y Z