Song name
# A B C D E F G H I J K L M N O P Q R S T U V W X Y Z

Keith Urban - Youre My Better Half tab

------------------------------------------------------------------------------
YOU'RE MY BETTER HALF (solo) - Keith Urban
------------------------------------------------------------------------------
Tabbed by: Tristan Olive


e|--4p0---0-0h2p0---0-0h2p0---------0---0h2p0----0-------0--4p2-4p2p0--------|
B|------4---------0---------4p2-4/5-----------0------2h4--------------0------|
G|---------------------------------------------------------------------------|
D|---------------------------------------------------------------------------|
A|---------------------------------------------------------------------------|
E|---------------------------------------------------------------------------|

e|----0-0-4p0-0-0-7p0-5p0-0-0-0-0-12p7p0-0-0-11p7p0-0-0-9p7p0-0-0-7p4p0------|
B|-4/5------------------------------------------------------------------0-0--|
G|---------------------------------------------------------------------------|
D|---------------------------------------------------------------------------|
A|---------------------------------------------------------------------------|
E|---------------------------------------------------------------------------|

e|---------------------------------------------------------------------------|
B|------12-12~~-12-14p12-12-12~~------------12-12~~-12-14p12-12-12~~---------|
G|--/13---------------------------------/13----------------------------------|
D|---------------------------------------------------------------------------|
A|---------------------------------------------------------------------------|
E|---------------------------------------------------------------------------|

e|-----------------------------------16-----16-16----16------16-------19b21--|
B|------17-17~~-17-19p17-17-17~-19b21---19b21---19b21---19b21---19p17--------|
G|--/18----------------------------------------------------------------------|
D|---------------------------------------------------------------------------|
A|---------------------------------------------------------------------------|
E|---------------------------------------------------------------------------|
Tap to rate this tab
# A B C D E F G H I J K L M N O P Q R S T U V W X Y Z