Guitaretab - guitar tabs
Song name
# A B C D E F G H I J K L M N O P Q R S T U V W X Y Z

Keith Urban - Youre My Better Half tab

Hey, it's me. I don't know the chorus and verses, but I have the solo and tune(intro) 
Any questions, e-mail me at jambojdp@hotmail.com.


Intro

e----------------------------------------------------------------------|
b--9-9-9-7-7-7-7-------------------------------------------------------|
g----------------9-9-9-8/4-4-6-6-6-6-4-4/2-2/4~~-----------------------|
d----------------------------------------------------------------------|
a----------------------------------------------------------------------|
e----------------------------------------------------------------------| x2


Solo
[ Tab from: http://www.guitaretab.com/k/keith-urban/59385.html ]
e--4p0-----0-2p0---0-4p0-------2p0-2p0---------0-0-7p0-0-5p0-0-12p0-0-11p0-0-9p0-0-7p0---|
b-------4/5-----4/5-----5-2h4~~-------4h5-4h5--------------------------------------------|
g----------------------------------------------------------------------------------------|
d----------------------------------------------------------------------------------------|
a----------------------------------------------------------------------------------------|
e----------------------------------------------------------------------------------------|


e-----------------------------------------------------------------------16--16--16--16--16--23bh--|
b-------12-12-12h14-12-12----12-12-12h14-12-12-------17-17-17h19-17-17-19b-19b-19b-19b-19b--------|
g--11/13-----------------11/13-------------------16/18--------------------------------------------|
d-------------------------------------------------------------------------------------------------|
a-------------------------------------------------------------------------------------------------|
e-------------------------------------------------------------------------------------------------|

note: when playing the 0-0-7p0, etc until the end of the solo, play in 16th notes. or 1 and2 and 3 and 4 and
         ^^  ^^ ^^ ^^ ^^ ^^ ^^ ^^
this solo sounds good on a gibson explorer or a telecaster.
Related for Youre My Better Half tab
Advertisement will be closed in 10 seconds