Guitaretab - guitar tabs
Song name
# A B C D E F G H I J K L M N O P Q R S T U V W X Y Z

Keith Urban - Raining On Sunday tab

Raining On Sunday
Keith Urban


Intro/Verse/Outro  (capo 4)
-0--0------------------0-----|
-0---0h1-------3-------0-----|
-0------------0-0------0-----|
-2-----------4---4/2-0-2-----|
-2--------3/5----------2-----|
-0---------------------0-----|


Verse Chords  Em, C, G, D
Chorus Chords  G, Am7, C, G, D


1:32
-----------------------------|
-7/9-7-5------------7/9------|
---------6--4--4h6----------|
--------------6--------------|
-----------------------------|
-----------------------------|


1:46
-----------|
-----------|
-----------|
-11/13-----|
-----------|
-----------|


1:50
-------------|
-------12----|
-11/13-------|
-------------|
-------------|
-------------|


1:54
---------------|
---------------|
--11h13br11----|
---------------|
---------------|
---------------|


2:17
-----------------------------|
-----------------------------|
--7/8-7/8-6/46/8--6-------|
-----------------------------|
-----------------------------|
-----------------------------|


Solo
2:32
-7-6----------7-6----7/9-9-9-6----0---0-0-0-0--0--0--0-----0-0-------|
-----7/-------------x----------7-7/9-9-9-9-11-12-12-12/14-14-14/16---|
--------8/9-6------x-----------6--------------------------------------|
----------------------------------------------------------------------|
----------------------------------------------------------------------|
----------------------------------------------------------------------|


0--0-----0-----16-------------|
16-17/19-19-19-19bend/hold----|
------------------------------|
------------------------------|
------------------------------|
------------------------------|


3:05
---------|
-19br----|
---------|
---------|
---------|
---------|


3:18   (keyboard)
---------------|
---------------|
---------------|
---2--1--------|
-2-----4-------|
---------------|


3:30   (keyboard)
---------------|
---------------|
---------------|
---1--2--------|
-2------4------|
---------------|


3:34
---------------------------7------|
---------------------------7------|
-9/6--4-6/9--6--4---------9------|
--------------------66/9--9------|
---------------------------7------|
----------------------------------|


Outro Solo
-11-12-14-15br-14br-----------------0--0----0--0----0----------|
---------------------14br--12-12----12-12---12-12---12p0-------|
---------------------------------11-------11------11-----11----|
---------------------------------------------------------------|
---------------------------------------------------------------|
---------------------------------------------------------------|

[ Tab from: http://www.guitaretab.com/k/keith-urban/61758.html ]
-----0--0-------0--0-------0--0----0----0----0--0----0----0----0--0--|
-----14-14------14-14------14-14---14---14---14-14---14---14---14-14-|
-/11-------11-11------11-11------11---11---11------11---11---11------|
---------------------------------------------------------------------|
---------------------------------------------------------------------|
---------------------------------------------------------------------|


---0--0--0--0--0--0--0--0--0--0--0--0--0--0--0--0-----0-0-0--0--------|
---14-14-14-14-14-12-14-16-17-17-16-14-12-17-16-14-12-17-16-14-16p14/12-|
-11---------------------------------------------------------------------|
------------------------------------------------------------------------|
------------------------------------------------------------------------|
------------------------------------------------------------------------|


-0--0--0--0------0--0--0-----0-----0-----0--0----------|
-12-12-12-12-----12-12-12----12----12----12-12---------|
-11-11-11-11h13--11-11-11h13-11h13-11h13-11-11---------|
-------------------------------------------------------|
-------------------------------------------------------|
-------------------------------------------------------|

-0--0--0--0--0--0--0--0-----------------17------------------------------|
-12-14-16-17-16-14-16-17-17b-17b-17b-17b-17p15----17-15b---------------|
------------------------------------------------16--------16p14-16br-16-|
------------------------------------------------------------------------|
------------------------------------------------------------------------|
------------------------------------------------------------------------|

---------------------------------------------------14-----14----14-|
-------------14-14br---14----------11-12-14br-16-16-----16----14---|
--------13-16--------13--13-11/13--13-13--------------16----16-----|
-/13-16------------------------------------------------------------|
-------------------------------------------------------------------|
-------------------------------------------------------------------|


-----14-14-16-16br-16b-16b--14-12-12h14p12-11-11--------------|
---14---------------------------------------------------------|
-16-----------------------------------------------------------|
--------------------------------------------------------------|
--------------------------------------------------------------|
--------------------------------------------------------------|


---------------------------------------------------------------|
-14-14-14/12-12-12-12-12-12-12-14-14-14/11-11-11/7-7-7---------|
-x--x--x-----x--x--x--x--x--x--x--x--x-----x--x----x-x---------|
---------------------------------------------------------------|
---------------------------------------------------------------|
---------------------------------------------------------------|


-/14-14-14-----------------------------------------------------|
-/14-14-14/11-11-11-11/7-7-7-7-9-9b-9br~~~~--------------------|
--x--x--x-----x--x--x----x-x-x---------------6br-4-6/8---------|
-------------------------------------------------------6-------|
---------------------------------------------------------------|
---------------------------------------------------------------|
Related for Raining On Sunday tab