Song name
# A B C D E F G H I J K L M N O P Q R S T U V W X Y Z

Keith Urban - God Made Women tab

----------------------------------------------------------------------------
			     God mad Woman - Keith Urban                   
-----------------------------------------------------------------------------
Tabbed by:Mitch
Email:N/A

Tuning:Normal
               Muted:he uses wah wah pedal at this part to
e|---------------------|
B|--3/5--5-5---xxxxx---|
G|-------------xxxxx---|  X's 2
d|-------------xxxxx---|            
A|-------------xxxxx---|
E|---------------------|

e|-----------------------------------------------------|-------------------|
B|--3/5--5-5---3p23p2---------3/5--5-5---3p23p2--------|-------------------|
G|----------------------2-2-----------------------4----|---b4--2-----------|
D|-----------------------------------------------------|-------------------|
A|------------------------------------------------{x2}-|-------------------|
E|-----------------------------------------------------|-------------------|
        :50      Here's little riffs through the rest of the song
e|--------------------|
B|--------------------|
G|---b4--2------------|
D|--------------------|
A|--------------------|
E|--------------------|
        :57 
e|--------------------|
B|--------------------|
G|---2h4--2-----------|
D|--------------------|
A|--------------------|
E|--------------------|
        1:00 
e|--------------------|
B|--------------------|
G|---x-x---2----------|
D|--------------------|
A|--------------------|
E|--------------------|

| /  slide up
| \  slide down
| h  hammer-on
| p  pull-off
| ~  vibrato
| +  harmonic
| x  Mute note
===============================================================================
Tap to rate this tab
 
# A B C D E F G H I J K L M N O P Q R S T U V W X Y Z