Song name
# A B C D E F G H I J K L M N O P Q R S T U V W X Y Z

Keith Urban - Used To The Pain tab

---------Keith Urban - Love, Pain & The Whole Crazy Thing---------

                       ~Used to The Pain~

Standard Tuning

x: mute string

Intro

e--x--x--x---x--x--x---|
B--1--3--x---1--3--x---|
G--0--0--2---0--0--2---|
D--2--2--2---2--2--2---|
A--3--3--0---3--3--0---|
E--x--x--x---x--x--x---|

Verse 1

e--x--x--x---x--x--x---1--x--1--x--x---|
B--1--3--x---1--3--x---1--1--1--1--x---|
G--0--0--2---0--0--2---2--0--2--0--2---|
D--2--2--2---2--2--2---3--2--3--2--2---|
A--3--3--0---3--3--0---3--3--3--3--0---|
E--x--x--x---x--x--x---1--x--1--x--x---|

Verse 2

e--x--x--x---x--x--x---1--x--1--x--x---|
B--1--3--x---1--3--x---1--1--1--1--x---|
G--0--0--2---0--0--2---2--0--2--0--2---|
D--2--2--2---2--2--2---3--2--3--2--2---|
A--3--3--0---3--3--0---3--3--3--3--0---|
E--x--x--x---x--x--x---1--x--1--x--x---|

Idk about the chorus or the rest of the song but ya..

not sure if this is right, but it sounds pretty close

Aaron N.
Tap to rate this tab
# A B C D E F G H I J K L M N O P Q R S T U V W X Y Z