Keke Palmer - Get Out My Head tab

This song is always in my head. What better way to help that than learn it?

Intro:

e|-----------------------------------------------------------------|
B|-----------------------------------------------------------------|
G|-----------------------------------------------------------------|
D|-----------------------------------------------------------------|
A|-2-2-2-2-2-2-2-2-2-2-2-2-2-2-7-9-6-6-6-6-6-6-6-6-6-6-6-6-6-6-7-9-|
D|-2-2-2-2-2-2-2-2-2-2-2-2-2-2-7-9-6-6-6-6-6-6-6-6-6-6-6-6-6-6-7-9-|
pm . . . . . . . . . . . . . . . . . . . . . . . . . . . . . . . .

Verses:
e|-----------------------------------------------------------------|
B|-----------------------------------------------------------------|
G|-----------------------------------------------------------------|
D|-----------------------------------------------------------------| (x4)
A|-2-2-2-2-2-2-2-2-2-2-2-2-2-2-7-9-6-6-6-6-6-6-6-6-6-6-6-6-6-6-7-9-|
D|-2-2-2-2-2-2-2-2-2-2-2-2-2-2-7-9-6-6-6-6-6-6-6-6-6-6-6-6-6-6-7-9-|
pm . . . . . . . . . . . . . . . . . . . . . . . . . . . . . . . .

Hook:

e|-----------------------------------------------------------------|
B|-----------------------------------------------------------------|
G|-----------------------------------------------------------------|
D|-----------------------------------------------------------------| (x3)
A|-2-2-2-2-2-2-2-2-2-2-2-2-2-2-7-9-6-6-6-6-6-6-6-6-6-6-6-6-6-6-7-9-|
D|-2-2-2-2-2-2-2-2-2-2-2-2-2-2-7-9-6-6-6-6-6-6-6-6-6-6-6-6-6-6-7-9-|
pm . . . . . . . . . . . . . . . . . . . . . . . . . . . . . . . .

e|-----------------------------------------------------------------|
B|-----------------------------------------------------------------|
G|-----------------------------------------------------------------|
D|-----------------------------------------------------------------|
A|-2-2-2-2-2-2-2-2-2-2-2-2-2-2-7-9-6-6-6-6-6-6-6-6-4-4-4-4-4-4-4-4-|
D|-2-2-2-2-2-2-2-2-2-2-2-2-2-2-7-9-6-6-6-6-6-6-6-6-4-4-4-4-4-4-4-4-|
pm . . . . . . . . . . . . . . . . . . . . . . . . . . . . . . . .
                                                  "it's like I can..."
e|--------------------------------------------------------------------|
B|-12-12-11--7-7------------------------------------------------------|
G|--------------------------------------------------------------------|
D|--------------------------------------------------------------------|
A|--------------------------------------------------------------------|
D|--------------------------------------------------------------------|
"Without you..."

Chorus:

Gtr 1(Rhythm)
e|-----------------------------------------------------------------|
B|-----------------------------------------------------------------|
G|-----------------------------------------------------------------|
D|-2-2-2-2-2-2-2-2-2-2-2-2-2-2-2-2-6-6-6-6-6-6-6-6-4-4-4-4-4-4-4-4-| (x6)
A|-2-2-2-2-2-2-2-2-2-2-2-2-2-2-2-2-6-6-6-6-6-6-6-6-4-4-4-4-4-4-4-4-|
D|-2-2-2-2-2-2-2-2-2-2-2-2-2-2-2-2-6-6-6-6-6-6-6-6-4-4-4-4-4-4-4-4-|

Repeat Verse
Repeat Hook
Repeat Chorus

Bridge:

e|-----------------|
B|-----------------|
G|-----------------|
D|-2--(2)--6--4----| (x4)
A|-2--(2)--6--4----|
D|-2--(2)--6--4----|

Repeat Chorus



Wellll, thaaaat's it. Obviously there are some parts I am unsure about. Mostly the 7-9 
in the Intro/verse/hook riffs. And also there's the fact I haven't even started on the 
chorus lead.
Tap to rate this tab
 
# A B C D E F G H I J K L M N O P Q R S T U V W X Y Z