Kele - On The Lam tab

This song is done on synth so i've done my best to tab it for guitar

Intro/Verse
e|----------------------|
B|----------------------|
G|----------------------|
D|2-2-6-6-6-8-8-8-8-8-8-|
A|4-4-7-7-7-9-9-9-9-9-9-|
E|----------------------|

Break - This is the wobbly synth part
e|22-------------------------------|
B|----55----------22---------------|
G|--33----------------44-----------|
D|------2222222222--22-------------|
A|----------------------4444444444-|
E|---------------------------------|x2

e|---------------------------------|
B|222------------------------------|
G|---44444111----4-----------------|
D|-----------2444------------------|
A|----------------4444444444444444-|
E|---------------------------------|x2

Chorus is just the same as the first part of the Break

End of Chorus 
e|---------------------------------|
B|---------------------------------|
G|------------------------33333333-|
D|222222224444444422222222---------|
A|---------------------------------|
E|---------------------------------|

Cant quite work out the really cool wobbly synth bit before the last chorus
I'll update if i do

Hopefulyl this is correct..enjoy :)
Tap to rate this tab
 
# A B C D E F G H I J K L M N O P Q R S T U V W X Y Z