Song name
# A B C D E F G H I J K L M N O P Q R S T U V W X Y Z

Kelis - Trick Me tab

Artist    : Kelis
Song      : Trick Me
Tabbed By : Jascha


.  - palm mute

Main Riff

e|----------------|
B|---------9-7-9--|
G|---------8-6-8--|
D|----6-----------|
A|--9-------------|
E|----------------|

Riff 2

e|-----------------|
B|-7-7-5-5-9-9-9-9-|
G|-6-6-4-4-8-8-8-8-|
D|-----------------|
A|-----------------|
E|-----------------|
   . . . . . . . .

Main Riff 4x
Riff 2    8x
Main Riff 3x
Main Riff 3x
Riff 2    4x
Main Riff 4x
Riff 2    7x
Riff 2 under Main Riff 4x
Riff 2    2x
Riff 2 under Main Riff 2x
Riff 2    2x (?)
Tap to rate this tab
# A B C D E F G H I J K L M N O P Q R S T U V W X Y Z