Song name
# A B C D E F G H I J K L M N O P Q R S T U V W X Y Z

Kelis - Milkshake tab

Standard Tuning

My milkshake brings...
---0---0---1---0---|
---2---3---1---1---|
---2---0---2---0---|
---2---4---3---2---|
---0---5---3---3---|
-------x---1---x---|

They want it...what the guys go crazy for...
-----------------------|
-----------------------|
---9---9---9---9-11-9--|
---9---9---9---9-11-9--|         Repeat til milkshake part comes around again
---7---7---7---7--9-7--|
-----------------------|
Tap to rate this tab
# A B C D E F G H I J K L M N O P Q R S T U V W X Y Z