Guitaretab - guitar tabs
Song name
# A B C D E F G H I J K L M N O P Q R S T U V W X Y Z

Keller Williams - Bounty Hunter tab

Keller Williams - Bounty Hunter
[Mike Cross]
As played on the album Breathe with The String Cheese Incident

Tuning [top to bottom]- D
	    		B
	    		F#
	    		B
   	    		F#
	    	        B
* = harmonics
/ = slide
Intro [basically what he does, mess around with it]
--------------------------------------------------------|
--------------------------------------------------------|
-12*----------------------------------------------------|
-12*---------------0--3--------------0--3--0-----0------|
-12*-------0--3-------------0--3---------------3--------|
-12*----------------------------------------------------|

---------------------|
-3--2--0--3-/-5------|
---------------------|
-3--2--0--3-/-5------|
---------------------|
---------------------|
[ Tab from: http://www.guitaretab.com/k/keller-williams/133155.html ]
Verse [again, easy to mess around on these chords if you want]
-0----3---5---0-----0----7-----0----3---5---0-----0----3---5---0---|
-0----3---5---0-----0----7-----0----3---5---0-----0----3---5---0---|
-0----3---5---0-----0----7-----0----3---5---0-----0----3---5---0---|
-0----3---5---0-----0----7-----0----3---5---0-----0----3---5---0---|
-0----3---5---0-----0----7-----0----3---5---0-----0----3---5---0---|
-0----3---5---0-----0----7-----0----3---5---0-----0----3---5---0---|

Chorus [again, just the basic chords, feel free to play around on them]
-3---5---0---7----0---3---5--3---0---|
-3---5---0---7----0---3---5--3---0---|
-3---5---0---7----0---3---5--3---0---|
-3---5---0---7----0---3---5--3---0---|
-3---5---0---7----0---3---5--3---0---|
-3---5---0---7----0---3---5--3---0---|
Related for Bounty Hunter tab
×
Bounty Hunter