Song name
# A B C D E F G H I J K L M N O P Q R S T U V W X Y Z

Keller Williams - Best Feeling tab

Tuning: EADGBe

 2:31
|---9-----------------------------------------------------------------------|
|-11--11-9-----------------------------------7p6----------------------------|
|----------10\8--6h8---6-------------------6-----6h8p6---6h8-6--------------|
|------------------------8(8)6---------6h8-------------8-------8p6---6-8-8--|
|------------------------------8-6-6h8-----------------------------8--------|
|---------------------------------------------------------------------------|

 2:41
|-----------------------------------------------8-9-8-------------11p9-9----|
|------6--------------------------------------11-----11-9-11-11~------------|
|----6---8p6-6----------------------8-8p6-6/10------------------------------|
|-/8--------8-8-6-8p6-----6h8-6-6-8------8----------------------------------|
|---------------------8-----------------------------------------------------|
|---------------------------------------------------------------------------|

 2:49
|-(9)12p11p9-11p9-----------------------------------------6-----------------|
|---------------------------------------------------------------------------|
|-----------------10\8-9p8p6h8---6h8p6-6--------6---6---8^--8br-8-6h8---6-8-|
|------------------------------8---------8p6--/8--8---8---------------8-----|
|---------------------------------------------------------------------------|
|---------------------------------------------------------------------------|

 3:00
|---------------------------------------------------------------------------|
|-6~-7p6-6------------------------------------------------------------------|
|----------8p6-6--------------------6---6~----------------------------------|
|----------------8p6-6--------6---6---8-------------------------------------|
|----------------------8p6-/8---8-------------------------------------------|
|---------------------------------------------------------------------------|
Tap to rate this tab
 
# A B C D E F G H I J K L M N O P Q R S T U V W X Y Z